0
SECTION
2
HEADER
9
$ACADVER
1
AC1012
9
$EXTMIN
10
9.940000
20
30.580000
30
0.0
9
$EXTMAX
10
17.570000
20
38.080000
30
0.0
9
$LIMMIN
10
252.476000
20
776.732000
9
$LIMMAX
10
446.278000
20
967.232000
9
$DIMSCALE
40
1.000000
9
$PDMODE
70
2
9
$PDSIZE
40
0.0
  9
$HANDSEED
  5
b6f
0
ENDSEC
0
SECTION
2
CLASSES
0
ENDSEC
0
SECTION
2
TABLES
0
TABLE
2
LTYPE
5
1e
100
AcDbSymbolTable
70
12
0
LTYPE
5
1f
100
AcDbSymbolTableRecord
100
AcDbLinetypeTableRecord
2
BYBLOCK
70
0
3

72
65
73
0
40
0.0
0
LTYPE
5
20
100
AcDbSymbolTableRecord
100
AcDbLinetypeTableRecord
2
BYLAYER
70
0
3

72
65
73
0
40
0.0
0
LTYPE
5
21
100
AcDbSymbolTableRecord
100
AcDbLinetypeTableRecord
2
CONTINUOUS
70
64
3
Solid line
72
65
73
0
40
0.0
0
LTYPE
5
22
100
AcDbSymbolTableRecord
100
AcDbLinetypeTableRecord
2
DASHED
70
64
3
__ __ __ __ __ __ __ __ __ __ __ __ __ __ __
72
65
73
2
40
0.75
49
0.5
74
0
49
-0.25
74
0
0
LTYPE
5
23
100
AcDbSymbolTableRecord
100
AcDbLinetypeTableRecord
2
DOT
70
64
3
...............................................
72
65
73
2
40
0.25
49
0.0
74
0
49
-0.25
74
0
0
LTYPE
5
24
100
AcDbSymbolTableRecord
100
AcDbLinetypeTableRecord
2
DASHDOT
70
64
3
__ . __ . __ . __ . __ . __ . __ . __ . __ . --
72
65
73
4
40
1.0
49
0.5
74
0
49
-0.25
74
0
49
0.0
74
0
49
-0.25
74
0
0
LTYPE
5
25
100
AcDbSymbolTableRecord
100
AcDbLinetypeTableRecord
2
CENTER
70
64
3
____ _ ____ _ ____ _ ____ _ ____ _ ____ _ ____
72
65
73
4
40
2.0
49
1.25
74
0
49
-0.25
74
0
49
0.25
74
0
49
-0.25
74
0
0
LTYPE
5
26
100
AcDbSymbolTableRecord
100
AcDbLinetypeTableRecord
2
PHANTOM
70
64
3
_____ _ _ _____ _ _ _____ _ _ _____ _ _ ____
72
65
73
6
40
2.5
49
1.25
74
0
49
-0.25
74
0
49
0.25
74
0
49
-0.25
74
0
49
0.25
74
0
49
-0.25
74
0
0
LTYPE
5
27
100
AcDbSymbolTableRecord
100
AcDbLinetypeTableRecord
2
HIDDEN
70
64
3
_ _ _ _ _ _ _ _ _ _ _ _ _ _ _ _ _ _ _ _ _ _ _
72
65
73
2
40
0.375
49
0.25
74
0
49
-0.125
74
0
0
LTYPE
5
28
100
AcDbSymbolTableRecord
100
AcDbLinetypeTableRecord
2
BORDER
70
64
3
__ __ . __ __ . __ __ . __ __ . __ __ . __ __
72
65
73
6
40
1.75
49
0.5
74
0
49
-0.25
74
0
49
0.5
74
0
49
-0.25
74
0
49
0.0
74
0
49
-0.25
74
0
0
LTYPE
5
29
100
AcDbSymbolTableRecord
100
AcDbLinetypeTableRecord
2
DIVIDE
70
64
3
__ . . __ . . __ . . __ . . __ . . __ . . __
72
65
73
6
40
1.25
49
0.5
74
0
49
-0.25
74
0
49
0.0
74
0
49
-0.25
74
0
49
0.0
74
0
49
-0.25
74
0
0
LTYPE
5
2a
100
AcDbSymbolTableRecord
100
AcDbLinetypeTableRecord
2
DOT2
70
64
3
...............................................
72
65
73
2
40
0.125
49
0.0
74
0
49
-0.125
74
0
0
ENDTAB
0
TABLE
2
STYLE
5
2b
100
AcDbSymbolTable
70
1
0
STYLE
5
2c
100
AcDbSymbolTableRecord
100
AcDbTextStyleTableRecord
2
STANDARD
70
64
40
0.0
41
1.0
50
0.0
71
0
42
5.0
3
txt
4
bigfont
0
ENDTAB
0
TABLE
2
LAYER
5
2d
100
AcDbSymbolTable
70
1
0
LAYER
5
2e
100
AcDbSymbolTableRecord
100
AcDbLayerTableRecord
2
0
70
0
62
7
6
CONTINUOUS
0
ENDTAB
0
TABLE
2
APPID
5
2f
100
AcDbSymbolTable
70
1
0
APPID
5
30
100
AcDbSymbolTableRecord
100
AcDbRegAppTableRecord
2
ACAD
70
64
0
ENDTAB
0
TABLE
2
DIMSTYLE
5
31
100
AcDbSymbolTable
70
0
0
ENDTAB
0
TABLE
2
UCS
5
32
100
AcDbSymbolTable
70
0
0
ENDTAB
0
TABLE
2
VIEW
5
33
100
AcDbSymbolTable
70
0
0
ENDTAB
0
TABLE
2
VPORT
5
34
100
AcDbSymbolTable
70
0
0
ENDTAB
0
TABLE
2
BLOCK_RECORD
5
35
100
AcDbSymbolTable
70
0
0
BLOCK_RECORD
5
36
100
AcDbSymbolTableRecord
100
AcDbBlockTableRecord
2
*MODEL_SPACE
0
BLOCK_RECORD
5
37
100
AcDbSymbolTableRecord
100
AcDbBlockTableRecord
2
*PAPER_SPACE
0
BLOCK_RECORD
5
38
100
AcDbSymbolTableRecord
100
AcDbBlockTableRecord
2
OPEN
0
BLOCK_RECORD
5
39
100
AcDbSymbolTableRecord
100
AcDbBlockTableRecord
2
HALF
0
BLOCK_RECORD
5
3a
100
AcDbSymbolTableRecord
100
AcDbBlockTableRecord
2
CLOSEDBLANK
0
BLOCK_RECORD
5
3b
100
AcDbSymbolTableRecord
100
AcDbBlockTableRecord
2
HALFCLOSE_R
0
BLOCK_RECORD
5
3c
100
AcDbSymbolTableRecord
100
AcDbBlockTableRecord
2
DOT
0
BLOCK_RECORD
5
3d
100
AcDbSymbolTableRecord
100
AcDbBlockTableRecord
2
HALFOPEN_R
0
BLOCK_RECORD
5
3e
100
AcDbSymbolTableRecord
100
AcDbBlockTableRecord
2
CLOSEDF
0
BLOCK_RECORD
5
3f
100
AcDbSymbolTableRecord
100
AcDbBlockTableRecord
2
HALF_R
0
ENDTAB
0
ENDSEC
0
SECTION
2
BLOCKS
0
BLOCK
5
40
100
AcDbEntity
8
0
100
AcDbBlockBegin
2
*MODEL_SPACE
70
0
10
0.0
20
0.0
30
0.0
3
*MODEL_SPACE
1

0
ENDBLK
5
41
100
AcDbEntity
8
0
100
AcDbBlockEnd
0
BLOCK
5
42
100
AcDbEntity
67
1
8
0
100
AcDbBlockBegin
2
*PAPER_SPACE
70
0
10
0.0
20
0.0
30
0.0
3
*PAPER_SPACE
1

0
ENDBLK
5
43
100
AcDbEntity
67
1
8
0
100
AcDbBlockEnd
0
BLOCK
5
44
100
AcDbEntity
8
0
100
AcDbBlockBegin
2
OPEN
70
0
10
0.0
20
0.0
30
0.0
3
OPEN
1

0
LINE
5
45
100
AcDbEntity
8
0
6
BYBLOCK
62
0
100
AcDbLine
10
0.000000
20
0.000000
11
-1.000000
21
0.000000
0
LINE
5
46
100
AcDbEntity
8
0
6
BYBLOCK
62
0
100
AcDbLine
10
-1.000000
20
-0.166667
11
0.000000
21
0.000000
0
LINE
5
47
100
AcDbEntity
8
0
6
BYBLOCK
62
0
100
AcDbLine
10
-1.000000
20
0.166667
11
0.000000
21
0.000000
0
ENDBLK
5
48
100
AcDbEntity
8
0
100
AcDbBlockEnd
0
BLOCK
5
49
100
AcDbEntity
8
0
100
AcDbBlockBegin
2
HALF
70
0
10
0.0
20
0.0
30
0.0
3
HALF
1

0
SOLID
5
4a
100
AcDbEntity
8
0
6
BYBLOCK
62
0
100
AcDbTrace
10
-1.000000
20
0.166667
11
-1.000000
21
-0.166667
12
0.000000
22
0.000000
13
0.000000
23
0.000000
0
ENDBLK
5
4b
100
AcDbEntity
8
0
100
AcDbBlockEnd
0
BLOCK
5
4c
100
AcDbEntity
8
0
100
AcDbBlockBegin
2
CLOSEDBLANK
70
0
10
0.0
20
0.0
30
0.0
3
CLOSEDBLANK
1

0
LINE
5
4d
100
AcDbEntity
8
0
6
BYBLOCK
62
0
100
AcDbLine
10
-1.000000
20
0.166667
11
-1.000000
21
-0.166667
0
LINE
5
4e
100
AcDbEntity
8
0
6
BYBLOCK
62
0
100
AcDbLine
10
0.000000
20
0.000000
11
-1.000000
21
-0.166667
0
LINE
5
4f
100
AcDbEntity
8
0
6
BYBLOCK
62
0
100
AcDbLine
10
-1.000000
20
0.166667
11
0.000000
21
0.000000
0
ENDBLK
5
50
100
AcDbEntity
8
0
100
AcDbBlockEnd
0
BLOCK
5
51
100
AcDbEntity
8
0
100
AcDbBlockBegin
2
HALFCLOSE_R
70
0
10
0.0
20
0.0
30
0.0
3
HALFCLOSE_R
1

0
LINE
5
52
100
AcDbEntity
8
0
6
BYBLOCK
62
0
100
AcDbLine
10
-1.000000
20
-0.166667
11
-1.000000
21
0.000000
0
LINE
5
53
100
AcDbEntity
8
0
6
BYBLOCK
62
0
100
AcDbLine
10
-1.000000
20
-0.166667
11
0.000000
21
0.000000
0
LINE
5
54
100
AcDbEntity
8
0
6
BYBLOCK
62
0
100
AcDbLine
10
0.000000
20
0.000000
11
-1.000000
21
0.000000
0
ENDBLK
5
55
100
AcDbEntity
8
0
100
AcDbBlockEnd
0
BLOCK
5
56
100
AcDbEntity
8
0
100
AcDbBlockBegin
2
DOT
70
0
10
0.0
20
0.0
30
0.0
3
DOT
1

0
LINE
5
57
100
AcDbEntity
8
0
6
BYBLOCK
62
0
100
AcDbLine
10
0.000000
20
0.000000
11
-1.000000
21
0.000000
0
POLYLINE
5
58
100
AcDbEntity
8
0
6
BYBLOCK
62
0
100
AcDb2dPolyline
66
1
10
0.0
20
0.0
30
0.0
70
1
40
0.166667
41
0.166667
0
VERTEX
5
59
100
AcDbEntity
8
0
100
AcDbVertex
100
AcDb2dVertex
62
12
10
-0.083333
20
0.000000
42
1.000000
0
VERTEX
5
5a
100
AcDbEntity
8
0
100
AcDbVertex
100
AcDb2dVertex
62
12
10
0.083333
20
0.000000
42
1.000000
0
SEQEND
5
5b
100
AcDbEntity
8
0
0
ENDBLK
5
5c
100
AcDbEntity
8
0
100
AcDbBlockEnd
0
BLOCK
5
5d
100
AcDbEntity
8
0
100
AcDbBlockBegin
2
HALFOPEN_R
70
0
10
0.0
20
0.0
30
0.0
3
HALFOPEN_R
1

0
LINE
5
5e
100
AcDbEntity
8
0
6
BYBLOCK
62
0
100
AcDbLine
10
-1.000000
20
-0.166667
11
0.000000
21
0.000000
0
LINE
5
5f
100
AcDbEntity
8
0
6
BYBLOCK
62
0
100
AcDbLine
10
0.000000
20
0.000000
11
-1.000000
21
0.000000
0
ENDBLK
5
60
100
AcDbEntity
8
0
100
AcDbBlockEnd
0
BLOCK
5
61
100
AcDbEntity
8
0
100
AcDbBlockBegin
2
CLOSEDF
70
0
10
0.0
20
0.0
30
0.0
3
CLOSEDF
1

0
SOLID
5
62
100
AcDbEntity
8
0
6
BYBLOCK
62
0
100
AcDbTrace
10
-1.000000
20
0.166667
11
-1.000000
21
-0.166667
12
0.000000
22
0.000000
13
0.000000
23
0.000000
0
ENDBLK
5
63
100
AcDbEntity
8
0
100
AcDbBlockEnd
0
BLOCK
5
64
100
AcDbEntity
8
0
100
AcDbBlockBegin
2
HALF_R
70
0
10
0.0
20
0.0
30
0.0
3
HALF_R
1

0
SOLID
5
65
100
AcDbEntity
8
0
6
BYBLOCK
62
0
100
AcDbTrace
10
-1.000000
20
-0.166667
11
-1.000000
21
0.000000
12
0.000000
22
0.000000
13
0.000000
23
0.000000
0
ENDBLK
5
66
100
AcDbEntity
8
0
100
AcDbBlockEnd
0
ENDSEC
0
SECTION
2
ENTITIES
0
POLYLINE
5
67
100
AcDbEntity
8
1
6
CONTINUOUS
62
5
100
AcDb2dPolyline
66
1
10
0.0
20
0.0
30
0.0
70
0
0
VERTEX
5
68
100
AcDbEntity
8
1
100
AcDbVertex
100
AcDb2dVertex
62
5
10
412.016164
20
958.259876
0
VERTEX
5
69
100
AcDbEntity
8
1
100
AcDbVertex
100
AcDb2dVertex
62
5
10
412.016164
20
959.109876
0
VERTEX
5
6a
100
AcDbEntity
8
1
100
AcDbVertex
100
AcDb2dVertex
62
5
10
414.516164
20
959.109876
0
SEQEND
5
6b
100
AcDbEntity
8
1
0
LINE
5
6c
100
AcDbEntity
8
1
100
AcDbLine
6
CONTINUOUS
62
5
10
412.116164
20
957.909876
11
413.566181
21
957.909876
0
LINE
5
6d
100
AcDbEntity
8
1
100
AcDbLine
6
CONTINUOUS
62
5
10
412.016164
20
959.109876
11
412.016164
21
958.259876
0
POLYLINE
5
6e
100
AcDbEntity
8
1
6
CONTINUOUS
62
5
100
AcDb2dPolyline
66
1
10
0.0
20
0.0
30
0.0
70
0
0
VERTEX
5
6f
100
AcDbEntity
8
1
100
AcDbVertex
100
AcDb2dVertex
62
5
10
412.216164
20
959.109876
0
VERTEX
5
70
100
AcDbEntity
8
1
100
AcDbVertex
100
AcDb2dVertex
62
5
10
412.216164
20
957.959876
0
VERTEX
5
71
100
AcDbEntity
8
1
100
AcDbVertex
100
AcDb2dVertex
62
5
10
412.116164
20
957.959876
0
SEQEND
5
72
100
AcDbEntity
8
1
0
LINE
5
73
100
AcDbEntity
8
1
100
AcDbLine
6
CONTINUOUS
62
5
10
413.590929
20
957.684876
11
413.590929
21
958.534876
0
POLYLINE
5
74
100
AcDbEntity
8
1
6
CONTINUOUS
62
5
100
AcDb2dPolyline
66
1
10
0.0
20
0.0
30
0.0
70
1
0
VERTEX
5
75
100
AcDbEntity
8
1
100
AcDbVertex
100
AcDb2dVertex
62
5
10
414.066181
20
957.684876
0
VERTEX
5
76
100
AcDbEntity
8
1
100
AcDbVertex
100
AcDb2dVertex
62
5
10
413.590929
20
957.684876
0
VERTEX
5
77
100
AcDbEntity
8
1
100
AcDbVertex
100
AcDb2dVertex
62
5
10
413.566181
20
957.709625
0
VERTEX
5
78
100
AcDbEntity
8
1
100
AcDbVertex
100
AcDb2dVertex
62
5
10
413.566181
20
958.510127
0
VERTEX
5
79
100
AcDbEntity
8
1
100
AcDbVertex
100
AcDb2dVertex
62
5
10
413.590929
20
958.534876
0
VERTEX
5
7a
100
AcDbEntity
8
1
100
AcDbVertex
100
AcDb2dVertex
62
5
10
414.066181
20
958.534876
0
VERTEX
5
7b
100
AcDbEntity
8
1
100
AcDbVertex
100
AcDb2dVertex
62
5
10
414.066181
20
957.684876
0
SEQEND
5
7c
100
AcDbEntity
8
1
0
POLYLINE
5
7d
100
AcDbEntity
8
1
6
CONTINUOUS
62
5
100
AcDb2dPolyline
66
1
10
0.0
20
0.0
30
0.0
70
1
0
VERTEX
5
7e
100
AcDbEntity
8
1
100
AcDbVertex
100
AcDb2dVertex
62
5
10
414.066181
20
957.109876
0
VERTEX
5
7f
100
AcDbEntity
8
1
100
AcDbVertex
100
AcDb2dVertex
62
5
10
414.516181
20
957.109876
0
VERTEX
5
80
100
AcDbEntity
8
1
100
AcDbVertex
100
AcDb2dVertex
62
5
10
414.516181
20
959.109876
0
VERTEX
5
81
100
AcDbEntity
8
1
100
AcDbVertex
100
AcDb2dVertex
62
5
10
414.066181
20
959.109876
0
SEQEND
5
82
100
AcDbEntity
8
1
0
POLYLINE
5
83
100
AcDbEntity
8
1
6
CONTINUOUS
62
5
100
AcDb2dPolyline
66
1
10
0.0
20
0.0
30
0.0
70
1
0
VERTEX
5
84
100
AcDbEntity
8
1
100
AcDbVertex
100
AcDb2dVertex
62
5
10
419.516181
20
950.609876
0
VERTEX
5
85
100
AcDbEntity
8
1
100
AcDbVertex
100
AcDb2dVertex
62
5
10
419.016181
20
951.109876
0
VERTEX
5
86
100
AcDbEntity
8
1
100
AcDbVertex
100
AcDb2dVertex
62
5
10
413.516181
20
951.109876
0
VERTEX
5
87
100
AcDbEntity
8
1
100
AcDbVertex
100
AcDb2dVertex
62
5
10
413.016181
20
950.609876
0
VERTEX
5
88
100
AcDbEntity
8
1
100
AcDbVertex
100
AcDb2dVertex
62
5
10
413.016181
20
945.609876
0
VERTEX
5
89
100
AcDbEntity
8
1
100
AcDbVertex
100
AcDb2dVertex
62
5
10
413.516181
20
945.109876
0
VERTEX
5
8a
100
AcDbEntity
8
1
100
AcDbVertex
100
AcDb2dVertex
62
5
10
419.016181
20
945.109876
0
VERTEX
5
8b
100
AcDbEntity
8
1
100
AcDbVertex
100
AcDb2dVertex
62
5
10
419.516181
20
945.609876
0
SEQEND
5
8c
100
AcDbEntity
8
1
0
POLYLINE
5
8d
100
AcDbEntity
8
1
6
CONTINUOUS
62
5
100
AcDb2dPolyline
66
1
10
0.0
20
0.0
30
0.0
70
0
0
VERTEX
5
8e
100
AcDbEntity
8
1
100
AcDbVertex
100
AcDb2dVertex
62
5
10
413.316181
20
952.109876
0
VERTEX
5
8f
100
AcDbEntity
8
1
100
AcDbVertex
100
AcDb2dVertex
62
5
10
413.316181
20
954.609876
0
VERTEX
5
90
100
AcDbEntity
8
1
100
AcDbVertex
100
AcDb2dVertex
62
5
10
414.516181
20
954.609876
0
VERTEX
5
91
100
AcDbEntity
8
1
100
AcDbVertex
100
AcDb2dVertex
62
5
10
414.516181
20
952.109876
0
SEQEND
5
92
100
AcDbEntity
8
1
0
LINE
5
93
100
AcDbEntity
8
6
100
AcDbLine
6
CONTINUOUS
62
5
10
413.316181
20
952.109876
11
413.316181
21
954.609897
0
LINE
5
94
100
AcDbEntity
8
6
100
AcDbLine
6
CONTINUOUS
62
5
10
414.516181
20
954.609897
11
413.316181
21
954.609897
0
LINE
5
95
100
AcDbEntity
8
1
100
AcDbLine
6
CONTINUOUS
62
5
10
412.555779
20
952.586400
11
412.555779
21
953.886400
0
POLYLINE
5
96
100
AcDbEntity
8
1
6
CONTINUOUS
62
5
100
AcDb2dPolyline
66
1
10
0.0
20
0.0
30
0.0
70
1
0
VERTEX
5
97
100
AcDbEntity
8
1
100
AcDbVertex
100
AcDb2dVertex
62
5
10
413.316181
20
952.586400
0
VERTEX
5
98
100
AcDbEntity
8
1
100
AcDbVertex
100
AcDb2dVertex
62
5
10
412.555779
20
952.586400
0
VERTEX
5
99
100
AcDbEntity
8
1
100
AcDbVertex
100
AcDb2dVertex
62
5
10
412.516181
20
952.625998
0
VERTEX
5
9a
100
AcDbEntity
8
1
100
AcDbVertex
100
AcDb2dVertex
62
5
10
412.516181
20
953.846802
0
VERTEX
5
9b
100
AcDbEntity
8
1
100
AcDbVertex
100
AcDb2dVertex
62
5
10
412.555779
20
953.886400
0
VERTEX
5
9c
100
AcDbEntity
8
1
100
AcDbVertex
100
AcDb2dVertex
62
5
10
413.316181
20
953.886400
0
VERTEX
5
9d
100
AcDbEntity
8
1
100
AcDbVertex
100
AcDb2dVertex
62
5
10
413.316181
20
952.586400
0
SEQEND
5
9e
100
AcDbEntity
8
1
0
LINE
5
9f
100
AcDbEntity
8
6
100
AcDbLine
6
CONTINUOUS
62
5
10
414.516181
20
953.190477
11
413.316181
21
953.190477
0
LINE
5
a0
100
AcDbEntity
8
1
100
AcDbLine
6
CONTINUOUS
62
5
10
414.516181
20
953.190477
11
413.316181
21
953.190477
0
ARC
5
a1
100
AcDbEntity
8
1
100
AcDbCircle
6
CONTINUOUS
62
5
10
419.216181
20
945.409876
40
0.300000
100
AcDbArc
50
-89.999999
51
0.000000
0
LINE
5
a2
100
AcDbEntity
8
1
100
AcDbLine
6
CONTINUOUS
62
5
10
419.516181
20
945.409876
11
419.516181
21
950.809876
0
ARC
5
a3
100
AcDbEntity
8
1
100
AcDbCircle
6
CONTINUOUS
62
5
10
419.216181
20
950.809876
40
0.300000
100
AcDbArc
50
0.000000
51
89.999999
0
LINE
5
a4
100
AcDbEntity
8
1
100
AcDbLine
6
CONTINUOUS
62
5
10
419.216181
20
951.109876
11
415.516181
21
951.109876
0
LINE
5
a5
100
AcDbEntity
8
1
100
AcDbLine
6
CONTINUOUS
62
5
10
415.516181
20
945.109876
11
419.216181
21
945.109876
0
CIRCLE
5
a6
100
AcDbEntity
8
1
100
AcDbCircle
6
CONTINUOUS
62
5
10
416.516181
20
946.109876
40
0.458000
0
CIRCLE
5
a7
100
AcDbEntity
8
1
100
AcDbCircle
6
CONTINUOUS
62
5
10
416.516181
20
946.109876
40
0.500000
0
POLYLINE
5
a8
100
AcDbEntity
8
1
6
CONTINUOUS
62
5
100
AcDb2dPolyline
66
1
10
0.0
20
0.0
30
0.0
70
1
0
VERTEX
5
a9
100
AcDbEntity
8
1
100
AcDbVertex
100
AcDb2dVertex
62
5
10
416.516181
20
946.398551
0
VERTEX
5
aa
100
AcDbEntity
8
1
100
AcDbVertex
100
AcDb2dVertex
62
5
10
416.766181
20
946.254214
0
VERTEX
5
ab
100
AcDbEntity
8
1
100
AcDbVertex
100
AcDb2dVertex
62
5
10
416.766181
20
945.965539
0
VERTEX
5
ac
100
AcDbEntity
8
1
100
AcDbVertex
100
AcDb2dVertex
62
5
10
416.516181
20
945.821201
0
VERTEX
5
ad
100
AcDbEntity
8
1
100
AcDbVertex
100
AcDb2dVertex
62
5
10
416.266181
20
945.965539
0
VERTEX
5
ae
100
AcDbEntity
8
1
100
AcDbVertex
100
AcDb2dVertex
62
5
10
416.266181
20
946.254214
0
VERTEX
5
af
100
AcDbEntity
8
1
100
AcDbVertex
100
AcDb2dVertex
62
5
10
416.516181
20
946.398551
0
SEQEND
5
b0
100
AcDbEntity
8
1
0
CIRCLE
5
b1
100
AcDbEntity
8
1
100
AcDbCircle
6
CONTINUOUS
62
5
10
416.516181
20
950.109876
40
0.458000
0
CIRCLE
5
b2
100
AcDbEntity
8
1
100
AcDbCircle
6
CONTINUOUS
62
5
10
416.516181
20
950.109876
40
0.500000
0
POLYLINE
5
b3
100
AcDbEntity
8
1
6
CONTINUOUS
62
5
100
AcDb2dPolyline
66
1
10
0.0
20
0.0
30
0.0
70
1
0
VERTEX
5
b4
100
AcDbEntity
8
1
100
AcDbVertex
100
AcDb2dVertex
62
5
10
416.516181
20
950.398551
0
VERTEX
5
b5
100
AcDbEntity
8
1
100
AcDbVertex
100
AcDb2dVertex
62
5
10
416.766181
20
950.254214
0
VERTEX
5
b6
100
AcDbEntity
8
1
100
AcDbVertex
100
AcDb2dVertex
62
5
10
416.766181
20
949.965539
0
VERTEX
5
b7
100
AcDbEntity
8
1
100
AcDbVertex
100
AcDb2dVertex
62
5
10
416.516181
20
949.821201
0
VERTEX
5
b8
100
AcDbEntity
8
1
100
AcDbVertex
100
AcDb2dVertex
62
5
10
416.266181
20
949.965539
0
VERTEX
5
b9
100
AcDbEntity
8
1
100
AcDbVertex
100
AcDb2dVertex
62
5
10
416.266181
20
950.254214
0
VERTEX
5
ba
100
AcDbEntity
8
1
100
AcDbVertex
100
AcDb2dVertex
62
5
10
416.516181
20
950.398551
0
SEQEND
5
bb
100
AcDbEntity
8
1
0
LINE
5
bc
100
AcDbEntity
8
6
100
AcDbLine
6
CONTINUOUS
62
5
10
414.516181
20
952.109876
11
414.516181
21
954.609897
0
CIRCLE
5
bd
100
AcDbEntity
8
1
100
AcDbCircle
6
CONTINUOUS
62
5
10
413.966181
20
946.109876
40
0.458000
0
CIRCLE
5
be
100
AcDbEntity
8
1
100
AcDbCircle
6
CONTINUOUS
62
5
10
413.966181
20
946.109876
40
0.500000
0
POLYLINE
5
bf
100
AcDbEntity
8
1
6
CONTINUOUS
62
5
100
AcDb2dPolyline
66
1
10
0.0
20
0.0
30
0.0
70
1
0
VERTEX
5
c0
100
AcDbEntity
8
1
100
AcDbVertex
100
AcDb2dVertex
62
5
10
413.966181
20
946.398551
0
VERTEX
5
c1
100
AcDbEntity
8
1
100
AcDbVertex
100
AcDb2dVertex
62
5
10
414.216181
20
946.254214
0
VERTEX
5
c2
100
AcDbEntity
8
1
100
AcDbVertex
100
AcDb2dVertex
62
5
10
414.216181
20
945.965539
0
VERTEX
5
c3
100
AcDbEntity
8
1
100
AcDbVertex
100
AcDb2dVertex
62
5
10
413.966181
20
945.821201
0
VERTEX
5
c4
100
AcDbEntity
8
1
100
AcDbVertex
100
AcDb2dVertex
62
5
10
413.716181
20
945.965539
0
VERTEX
5
c5
100
AcDbEntity
8
1
100
AcDbVertex
100
AcDb2dVertex
62
5
10
413.716181
20
946.254214
0
VERTEX
5
c6
100
AcDbEntity
8
1
100
AcDbVertex
100
AcDb2dVertex
62
5
10
413.966181
20
946.398551
0
SEQEND
5
c7
100
AcDbEntity
8
1
0
CIRCLE
5
c8
100
AcDbEntity
8
1
100
AcDbCircle
6
CONTINUOUS
62
5
10
413.966181
20
950.109876
40
0.458000
0
CIRCLE
5
c9
100
AcDbEntity
8
1
100
AcDbCircle
6
CONTINUOUS
62
5
10
413.966181
20
950.109876
40
0.500000
0
POLYLINE
5
ca
100
AcDbEntity
8
1
6
CONTINUOUS
62
5
100
AcDb2dPolyline
66
1
10
0.0
20
0.0
30
0.0
70
1
0
VERTEX
5
cb
100
AcDbEntity
8
1
100
AcDbVertex
100
AcDb2dVertex
62
5
10
413.966181
20
950.398551
0
VERTEX
5
cc
100
AcDbEntity
8
1
100
AcDbVertex
100
AcDb2dVertex
62
5
10
414.216181
20
950.254214
0
VERTEX
5
cd
100
AcDbEntity
8
1
100
AcDbVertex
100
AcDb2dVertex
62
5
10
414.216181
20
949.965539
0
VERTEX
5
ce
100
AcDbEntity
8
1
100
AcDbVertex
100
AcDb2dVertex
62
5
10
413.966181
20
949.821201
0
VERTEX
5
cf
100
AcDbEntity
8
1
100
AcDbVertex
100
AcDb2dVertex
62
5
10
413.716181
20
949.965539
0
VERTEX
5
d0
100
AcDbEntity
8
1
100
AcDbVertex
100
AcDb2dVertex
62
5
10
413.716181
20
950.254214
0
VERTEX
5
d1
100
AcDbEntity
8
1
100
AcDbVertex
100
AcDb2dVertex
62
5
10
413.966181
20
950.398551
0
SEQEND
5
d2
100
AcDbEntity
8
1
0
CIRCLE
5
d3
100
AcDbEntity
8
1
100
AcDbCircle
6
CONTINUOUS
62
5
10
413.966181
20
948.109876
40
0.425000
0
CIRCLE
5
d4
100
AcDbEntity
8
1
100
AcDbCircle
6
DOT2
62
5
10
413.966181
20
948.109876
40
0.500000
0
CIRCLE
5
d5
100
AcDbEntity
8
1
100
AcDbCircle
6
CONTINUOUS
62
5
10
418.516181
20
946.109876
40
0.458000
0
CIRCLE
5
d6
100
AcDbEntity
8
1
100
AcDbCircle
6
CONTINUOUS
62
5
10
418.516181
20
946.109876
40
0.500000
0
POLYLINE
5
d7
100
AcDbEntity
8
1
6
CONTINUOUS
62
5
100
AcDb2dPolyline
66
1
10
0.0
20
0.0
30
0.0
70
1
0
VERTEX
5
d8
100
AcDbEntity
8
1
100
AcDbVertex
100
AcDb2dVertex
62
5
10
418.516181
20
946.398551
0
VERTEX
5
d9
100
AcDbEntity
8
1
100
AcDbVertex
100
AcDb2dVertex
62
5
10
418.766181
20
946.254214
0
VERTEX
5
da
100
AcDbEntity
8
1
100
AcDbVertex
100
AcDb2dVertex
62
5
10
418.766181
20
945.965539
0
VERTEX
5
db
100
AcDbEntity
8
1
100
AcDbVertex
100
AcDb2dVertex
62
5
10
418.516181
20
945.821201
0
VERTEX
5
dc
100
AcDbEntity
8
1
100
AcDbVertex
100
AcDb2dVertex
62
5
10
418.266181
20
945.965539
0
VERTEX
5
dd
100
AcDbEntity
8
1
100
AcDbVertex
100
AcDb2dVertex
62
5
10
418.266181
20
946.254214
0
VERTEX
5
de
100
AcDbEntity
8
1
100
AcDbVertex
100
AcDb2dVertex
62
5
10
418.516181
20
946.398551
0
SEQEND
5
df
100
AcDbEntity
8
1
0
CIRCLE
5
e0
100
AcDbEntity
8
1
100
AcDbCircle
6
CONTINUOUS
62
5
10
418.516181
20
950.109876
40
0.458000
0
CIRCLE
5
e1
100
AcDbEntity
8
1
100
AcDbCircle
6
CONTINUOUS
62
5
10
418.516181
20
950.109876
40
0.500000
0
POLYLINE
5
e2
100
AcDbEntity
8
1
6
CONTINUOUS
62
5
100
AcDb2dPolyline
66
1
10
0.0
20
0.0
30
0.0
70
1
0
VERTEX
5
e3
100
AcDbEntity
8
1
100
AcDbVertex
100
AcDb2dVertex
62
5
10
418.516181
20
950.398551
0
VERTEX
5
e4
100
AcDbEntity
8
1
100
AcDbVertex
100
AcDb2dVertex
62
5
10
418.766181
20
950.254214
0
VERTEX
5
e5
100
AcDbEntity
8
1
100
AcDbVertex
100
AcDb2dVertex
62
5
10
418.766181
20
949.965539
0
VERTEX
5
e6
100
AcDbEntity
8
1
100
AcDbVertex
100
AcDb2dVertex
62
5
10
418.516181
20
949.821201
0
VERTEX
5
e7
100
AcDbEntity
8
1
100
AcDbVertex
100
AcDb2dVertex
62
5
10
418.266181
20
949.965539
0
VERTEX
5
e8
100
AcDbEntity
8
1
100
AcDbVertex
100
AcDb2dVertex
62
5
10
418.266181
20
950.254214
0
VERTEX
5
e9
100
AcDbEntity
8
1
100
AcDbVertex
100
AcDb2dVertex
62
5
10
418.516181
20
950.398551
0
SEQEND
5
ea
100
AcDbEntity
8
1
0
POLYLINE
5
eb
100
AcDbEntity
8
1
6
CONTINUOUS
62
5
100
AcDb2dPolyline
66
1
10
0.0
20
0.0
30
0.0
70
0
0
VERTEX
5
ec
100
AcDbEntity
8
1
100
AcDbVertex
100
AcDb2dVertex
62
5
10
414.966181
20
951.109876
0
VERTEX
5
ed
100
AcDbEntity
8
1
100
AcDbVertex
100
AcDb2dVertex
62
5
10
414.966181
20
957.609876
0
VERTEX
5
ee
100
AcDbEntity
8
1
100
AcDbVertex
100
AcDb2dVertex
62
5
10
414.516181
20
957.609876
0
VERTEX
5
ef
100
AcDbEntity
8
1
100
AcDbVertex
100
AcDb2dVertex
62
5
10
414.516181
20
959.109876
0
VERTEX
5
f0
100
AcDbEntity
8
1
100
AcDbVertex
100
AcDb2dVertex
62
5
10
416.056439
20
959.109876
0
SEQEND
5
f1
100
AcDbEntity
8
1
0
LINE
5
f2
100
AcDbEntity
8
1
100
AcDbLine
6
CONTINUOUS
62
5
10
414.516181
20
957.609876
11
414.516181
21
952.109876
0
POLYLINE
5
f3
100
AcDbEntity
8
1
6
CONTINUOUS
62
5
100
AcDb2dPolyline
66
1
10
0.0
20
0.0
30
0.0
70
0
0
VERTEX
5
f4
100
AcDbEntity
8
1
100
AcDbVertex
100
AcDb2dVertex
62
5
10
414.516164
20
954.909876
0
VERTEX
5
f5
100
AcDbEntity
8
1
100
AcDbVertex
100
AcDb2dVertex
62
5
10
414.216164
20
954.909876
0
VERTEX
5
f6
100
AcDbEntity
8
1
100
AcDbVertex
100
AcDb2dVertex
62
5
10
414.216164
20
957.109876
0
SEQEND
5
f7
100
AcDbEntity
8
1
0
LINE
5
f8
100
AcDbEntity
8
6
100
AcDbLine
6
CONTINUOUS
62
5
10
414.516181
20
941.609851
11
413.316181
21
941.609851
0
LINE
5
f9
100
AcDbEntity
8
1
100
AcDbLine
6
CONTINUOUS
62
5
10
412.116164
20
938.309876
11
413.566181
21
938.309876
0
POLYLINE
5
fa
100
AcDbEntity
8
1
6
CONTINUOUS
62
5
100
AcDb2dPolyline
66
1
10
0.0
20
0.0
30
0.0
70
0
0
VERTEX
5
fb
100
AcDbEntity
8
1
100
AcDbVertex
100
AcDb2dVertex
62
5
10
414.516164
20
942.109876
0
VERTEX
5
fc
100
AcDbEntity
8
1
100
AcDbVertex
100
AcDb2dVertex
62
5
10
414.516164
20
937.109876
0
VERTEX
5
fd
100
AcDbEntity
8
1
100
AcDbVertex
100
AcDb2dVertex
62
5
10
412.016164
20
937.109876
0
VERTEX
5
fe
100
AcDbEntity
8
1
100
AcDbVertex
100
AcDb2dVertex
62
5
10
412.016164
20
937.959876
0
SEQEND
5
ff
100
AcDbEntity
8
1
0
POLYLINE
5
100
100
AcDbEntity
8
1
6
CONTINUOUS
62
5
100
AcDb2dPolyline
66
1
10
0.0
20
0.0
30
0.0
70
0
0
VERTEX
5
101
100
AcDbEntity
8
1
100
AcDbVertex
100
AcDb2dVertex
62
5
10
412.216164
20
937.109876
0
VERTEX
5
102
100
AcDbEntity
8
1
100
AcDbVertex
100
AcDb2dVertex
62
5
10
412.216164
20
938.259876
0
VERTEX
5
103
100
AcDbEntity
8
1
100
AcDbVertex
100
AcDb2dVertex
62
5
10
412.116164
20
938.259876
0
SEQEND
5
104
100
AcDbEntity
8
1
0
LINE
5
105
100
AcDbEntity
8
1
100
AcDbLine
6
CONTINUOUS
62
5
10
414.216164
20
939.109876
11
414.216164
21
941.609851
0
LINE
5
106
100
AcDbEntity
8
1
100
AcDbLine
6
CONTINUOUS
62
5
10
413.590929
20
938.534876
11
413.590929
21
937.684876
0
POLYLINE
5
107
100
AcDbEntity
8
1
6
CONTINUOUS
62
5
100
AcDb2dPolyline
66
1
10
0.0
20
0.0
30
0.0
70
1
0
VERTEX
5
108
100
AcDbEntity
8
1
100
AcDbVertex
100
AcDb2dVertex
62
5
10
414.066181
20
938.534876
0
VERTEX
5
109
100
AcDbEntity
8
1
100
AcDbVertex
100
AcDb2dVertex
62
5
10
413.590929
20
938.534876
0
VERTEX
5
10a
100
AcDbEntity
8
1
100
AcDbVertex
100
AcDb2dVertex
62
5
10
413.566181
20
938.510127
0
VERTEX
5
10b
100
AcDbEntity
8
1
100
AcDbVertex
100
AcDb2dVertex
62
5
10
413.566181
20
937.709625
0
VERTEX
5
10c
100
AcDbEntity
8
1
100
AcDbVertex
100
AcDb2dVertex
62
5
10
413.590929
20
937.684876
0
VERTEX
5
10d
100
AcDbEntity
8
1
100
AcDbVertex
100
AcDb2dVertex
62
5
10
414.066181
20
937.684876
0
VERTEX
5
10e
100
AcDbEntity
8
1
100
AcDbVertex
100
AcDb2dVertex
62
5
10
414.066181
20
938.534876
0
SEQEND
5
10f
100
AcDbEntity
8
1
0
POLYLINE
5
110
100
AcDbEntity
8
1
6
CONTINUOUS
62
5
100
AcDb2dPolyline
66
1
10
0.0
20
0.0
30
0.0
70
1
0
VERTEX
5
111
100
AcDbEntity
8
1
100
AcDbVertex
100
AcDb2dVertex
62
5
10
414.066181
20
939.109876
0
VERTEX
5
112
100
AcDbEntity
8
1
100
AcDbVertex
100
AcDb2dVertex
62
5
10
414.516181
20
939.109876
0
VERTEX
5
113
100
AcDbEntity
8
1
100
AcDbVertex
100
AcDb2dVertex
62
5
10
414.516181
20
937.109876
0
VERTEX
5
114
100
AcDbEntity
8
1
100
AcDbVertex
100
AcDb2dVertex
62
5
10
414.066181
20
937.109876
0
SEQEND
5
115
100
AcDbEntity
8
1
0
LINE
5
116
100
AcDbEntity
8
1
100
AcDbLine
6
DOT2
62
5
10
412.316181
20
942.983352
11
413.516181
21
942.983352
0
LINE
5
117
100
AcDbEntity
8
6
100
AcDbLine
6
CONTINUOUS
62
5
10
414.516181
20
943.029276
11
413.316181
21
943.029276
0
LINE
5
118
100
AcDbEntity
8
1
100
AcDbLine
6
CONTINUOUS
62
5
10
414.516181
20
943.029276
11
413.316181
21
943.029276
0
ARC
5
119
100
AcDbEntity
8
6
100
AcDbCircle
6
CONTINUOUS
62
5
10
399.265358
20
939.558372
40
0.500000
100
AcDbArc
50
168.232711
51
-179.998951
0
LINE
5
11a
100
AcDbEntity
8
6
100
AcDbLine
6
CONTINUOUS
62
5
10
398.765374
20
938.659893
11
398.715375
21
938.609892
0
LINE
5
11b
100
AcDbEntity
8
6
100
AcDbLine
6
CONTINUOUS
62
5
10
398.765374
20
938.659893
11
398.765358
21
939.558363
0
ARC
5
11c
100
AcDbEntity
8
6
100
AcDbCircle
6
CONTINUOUS
62
5
10
398.335279
20
938.275778
40
0.100000
100
AcDbArc
50
-73.041752
51
0.002097
0
LINE
5
11d
100
AcDbEntity
8
6
100
AcDbLine
6
CONTINUOUS
62
5
10
398.320266
20
938.168232
11
398.320298
21
936.449850
0
LINE
5
11e
100
AcDbEntity
8
6
100
AcDbLine
6
CONTINUOUS
62
5
10
398.435278
20
938.349877
11
398.435279
21
938.275976
0
LINE
5
11f
100
AcDbEntity
8
6
100
AcDbLine
6
CONTINUOUS
62
5
10
398.598286
20
938.609890
11
398.598291
21
938.349807
0
LINE
5
120
100
AcDbEntity
8
6
100
AcDbLine
6
CONTINUOUS
62
5
10
398.865334
20
940.889894
11
398.813382
21
940.859894
0
LINE
5
121
100
AcDbEntity
8
6
100
AcDbLine
6
CONTINUOUS
62
5
10
399.004827
20
940.759450
11
398.775866
21
939.660341
0
ARC
5
122
100
AcDbEntity
8
6
100
AcDbCircle
6
CONTINUOUS
62
5
10
398.515335
20
940.861419
40
0.500000
100
AcDbArc
50
-11.767288
51
0.001047
0
LINE
5
123
100
AcDbEntity
8
6
100
AcDbLine
6
CONTINUOUS
62
5
10
399.015335
20
940.861428
11
399.015321
21
941.609898
0
LINE
5
124
100
AcDbEntity
8
6
100
AcDbLine
6
CONTINUOUS
62
5
10
398.865329
20
941.209895
11
398.865334
21
940.889894
0
POLYLINE
5
125
100
AcDbEntity
8
1
6
CONTINUOUS
62
5
100
AcDb2dPolyline
66
1
10
0.0
20
0.0
30
0.0
70
0
0
VERTEX
5
126
100
AcDbEntity
8
1
100
AcDbVertex
100
AcDb2dVertex
62
5
10
398.320270
20
937.959876
0
VERTEX
5
127
100
AcDbEntity
8
1
100
AcDbVertex
100
AcDb2dVertex
62
5
10
412.116164
20
937.959876
0
VERTEX
5
128
100
AcDbEntity
8
1
100
AcDbVertex
100
AcDb2dVertex
62
5
10
412.116164
20
938.709876
0
VERTEX
5
129
100
AcDbEntity
8
1
100
AcDbVertex
100
AcDb2dVertex
62
5
10
414.066181
20
938.709876
0
SEQEND
5
12a
100
AcDbEntity
8
1
0
LINE
5
12b
100
AcDbEntity
8
1
100
AcDbLine
6
CONTINUOUS
62
5
10
398.598287
20
938.558268
11
411.506133
21
938.558268
0
LINE
5
12c
100
AcDbEntity
8
1
100
AcDbLine
6
HIDDEN
62
5
10
412.116164
20
938.059876
11
398.320268
21
938.059876
0
LINE
5
12d
100
AcDbEntity
8
1
100
AcDbLine
6
CONTINUOUS
62
5
10
412.016164
20
937.109876
11
398.320286
21
937.109876
0
POLYLINE
5
12e
100
AcDbEntity
8
1
6
CONTINUOUS
62
5
100
AcDb2dPolyline
66
1
10
0.0
20
0.0
30
0.0
70
0
0
VERTEX
5
12f
100
AcDbEntity
8
1
100
AcDbVertex
100
AcDb2dVertex
62
5
10
414.966181
20
945.109876
0
VERTEX
5
130
100
AcDbEntity
8
1
100
AcDbVertex
100
AcDb2dVertex
62
5
10
414.966181
20
944.109876
0
VERTEX
5
131
100
AcDbEntity
8
1
100
AcDbVertex
100
AcDb2dVertex
62
5
10
412.966181
20
944.109876
0
VERTEX
5
132
100
AcDbEntity
8
1
100
AcDbVertex
100
AcDb2dVertex
62
5
10
412.966181
20
952.109876
0
VERTEX
5
133
100
AcDbEntity
8
1
100
AcDbVertex
100
AcDb2dVertex
62
5
10
414.966181
20
952.109876
0
VERTEX
5
134
100
AcDbEntity
8
1
100
AcDbVertex
100
AcDb2dVertex
62
5
10
414.966181
20
951.109876
0
SEQEND
5
135
100
AcDbEntity
8
1
0
LINE
5
136
100
AcDbEntity
8
1
100
AcDbLine
6
CONTINUOUS
62
5
10
412.555779
20
943.633352
11
412.555779
21
942.333352
0
POLYLINE
5
137
100
AcDbEntity
8
1
6
CONTINUOUS
62
5
100
AcDb2dPolyline
66
1
10
0.0
20
0.0
30
0.0
70
1
0
VERTEX
5
138
100
AcDbEntity
8
1
100
AcDbVertex
100
AcDb2dVertex
62
5
10
413.316181
20
943.633352
0
VERTEX
5
139
100
AcDbEntity
8
1
100
AcDbVertex
100
AcDb2dVertex
62
5
10
412.555779
20
943.633352
0
VERTEX
5
13a
100
AcDbEntity
8
1
100
AcDbVertex
100
AcDb2dVertex
62
5
10
412.516181
20
943.593754
0
VERTEX
5
13b
100
AcDbEntity
8
1
100
AcDbVertex
100
AcDb2dVertex
62
5
10
412.516181
20
942.372950
0
VERTEX
5
13c
100
AcDbEntity
8
1
100
AcDbVertex
100
AcDb2dVertex
62
5
10
412.555779
20
942.333352
0
VERTEX
5
13d
100
AcDbEntity
8
1
100
AcDbVertex
100
AcDb2dVertex
62
5
10
413.316181
20
942.333352
0
VERTEX
5
13e
100
AcDbEntity
8
1
100
AcDbVertex
100
AcDb2dVertex
62
5
10
413.316181
20
943.633352
0
SEQEND
5
13f
100
AcDbEntity
8
1
0
POLYLINE
5
140
100
AcDbEntity
8
1
6
CONTINUOUS
62
5
100
AcDb2dPolyline
66
1
10
0.0
20
0.0
30
0.0
70
0
0
VERTEX
5
141
100
AcDbEntity
8
1
100
AcDbVertex
100
AcDb2dVertex
62
5
10
414.516181
20
944.109876
0
VERTEX
5
142
100
AcDbEntity
8
1
100
AcDbVertex
100
AcDb2dVertex
62
5
10
414.516181
20
941.609876
0
VERTEX
5
143
100
AcDbEntity
8
1
100
AcDbVertex
100
AcDb2dVertex
62
5
10
413.316181
20
941.609876
0
VERTEX
5
144
100
AcDbEntity
8
1
100
AcDbVertex
100
AcDb2dVertex
62
5
10
413.316181
20
944.109876
0
SEQEND
5
145
100
AcDbEntity
8
1
0
LINE
5
146
100
AcDbEntity
8
6
100
AcDbLine
6
CONTINUOUS
62
5
10
413.316181
20
941.609851
11
413.316181
21
944.109876
0
LINE
5
147
100
AcDbEntity
8
6
100
AcDbLine
6
CONTINUOUS
62
5
10
414.516181
20
941.609851
11
414.516181
21
945.109876
0
POLYLINE
5
148
100
AcDbEntity
8
1
6
CONTINUOUS
62
5
100
AcDb2dPolyline
66
1
10
0.0
20
0.0
30
0.0
70
0
0
VERTEX
5
149
100
AcDbEntity
8
1
100
AcDbVertex
100
AcDb2dVertex
62
5
10
416.056439
20
937.109876
0
VERTEX
5
14a
100
AcDbEntity
8
1
100
AcDbVertex
100
AcDb2dVertex
62
5
10
414.516181
20
937.109876
0
VERTEX
5
14b
100
AcDbEntity
8
1
100
AcDbVertex
100
AcDb2dVertex
62
5
10
414.516181
20
938.609876
0
VERTEX
5
14c
100
AcDbEntity
8
1
100
AcDbVertex
100
AcDb2dVertex
62
5
10
414.966181
20
938.609876
0
VERTEX
5
14d
100
AcDbEntity
8
1
100
AcDbVertex
100
AcDb2dVertex
62
5
10
414.966181
20
945.109876
0
SEQEND
5
14e
100
AcDbEntity
8
1
0
LINE
5
14f
100
AcDbEntity
8
1
100
AcDbLine
6
CONTINUOUS
62
5
10
415.716181
20
956.109876
11
425.316181
21
956.109876
0
LINE
5
150
100
AcDbEntity
8
1
100
AcDbLine
6
CONTINUOUS
62
5
10
415.716181
20
940.109876
11
425.316181
21
940.109876
0
ARC
5
151
100
AcDbEntity
8
1
100
AcDbCircle
6
CONTINUOUS
62
5
10
415.816181
20
937.409876
40
0.300000
100
AcDbArc
50
179.999998
51
-89.999999
0
LINE
5
152
100
AcDbEntity
8
1
100
AcDbLine
6
CONTINUOUS
62
5
10
415.816181
20
937.109876
11
425.316181
21
937.109876
0
ARC
5
153
100
AcDbEntity
8
1
100
AcDbCircle
6
CONTINUOUS
62
5
10
425.316181
20
937.309876
40
0.200000
100
AcDbArc
50
-89.999999
51
0.000000
0
LINE
5
154
100
AcDbEntity
8
1
100
AcDbLine
6
CONTINUOUS
62
5
10
425.516181
20
937.309876
11
425.516181
21
958.909876
0
ARC
5
155
100
AcDbEntity
8
1
100
AcDbCircle
6
CONTINUOUS
62
5
10
425.316181
20
958.909876
40
0.200000
100
AcDbArc
50
0.000000
51
89.999999
0
LINE
5
156
100
AcDbEntity
8
1
100
AcDbLine
6
CONTINUOUS
62
5
10
425.316181
20
959.109876
11
415.816181
21
959.109876
0
ARC
5
157
100
AcDbEntity
8
1
100
AcDbCircle
6
CONTINUOUS
62
5
10
415.816181
20
958.809876
40
0.300000
100
AcDbArc
50
89.999999
51
179.999998
0
LINE
5
158
100
AcDbEntity
8
1
100
AcDbLine
6
CONTINUOUS
62
5
10
415.516181
20
958.809876
11
415.516181
21
951.109876
0
LINE
5
159
100
AcDbEntity
8
1
100
AcDbLine
6
CONTINUOUS
62
5
10
415.516181
20
945.109876
11
415.516181
21
937.409876
0
LINE
5
15a
100
AcDbEntity
8
1
100
AcDbLine
6
DOT2
62
5
10
423.405056
20
886.828556
11
425.035851
21
886.828556
0
LINE
5
15b
100
AcDbEntity
8
1
100
AcDbLine
6
DASHED
62
5
10
423.616181
20
886.328556
11
424.816181
21
886.328556
0
LINE
5
15c
100
AcDbEntity
8
1
100
AcDbLine
6
DASHED
62
5
10
423.616181
20
886.403556
11
424.816181
21
886.403556
0
LINE
5
15d
100
AcDbEntity
8
1
100
AcDbLine
6
DASHED
62
5
10
423.616181
20
887.253556
11
424.816181
21
887.253556
0
LINE
5
15e
100
AcDbEntity
8
1
100
AcDbLine
6
DASHED
62
5
10
423.616181
20
887.328556
11
424.816181
21
887.328556
0
ARC
5
15f
100
AcDbEntity
8
1
100
AcDbCircle
6
CONTINUOUS
62
5
10
425.216181
20
884.978520
40
0.300000
100
AcDbArc
50
89.999999
51
179.999998
0
LINE
5
160
100
AcDbEntity
8
1
100
AcDbLine
6
CONTINUOUS
62
5
10
425.216181
20
885.278520
11
425.316181
21
885.278520
0
ARC
5
161
100
AcDbEntity
8
1
100
AcDbCircle
6
CONTINUOUS
62
5
10
425.216181
20
888.628271
40
0.300000
100
AcDbArc
50
179.999998
51
-89.999999
0
LINE
5
162
100
AcDbEntity
8
1
100
AcDbLine
6
CONTINUOUS
62
5
10
425.216181
20
888.328271
11
425.316181
21
888.328271
0
ARC
5
163
100
AcDbEntity
8
1
100
AcDbCircle
6
CONTINUOUS
62
5
10
425.116181
20
882.721449
40
0.300000
100
AcDbArc
50
179.999998
51
-89.999999
0
LINE
5
164
100
AcDbEntity
8
1
100
AcDbLine
6
CONTINUOUS
62
5
10
424.816181
20
882.721449
11
424.816181
21
890.928556
0
ARC
5
165
100
AcDbEntity
8
1
100
AcDbCircle
6
CONTINUOUS
62
5
10
425.116181
20
890.928556
40
0.300000
100
AcDbArc
50
89.999999
51
179.999998
0
ARC
5
166
100
AcDbEntity
8
1
100
AcDbCircle
6
CONTINUOUS
62
5
10
423.316181
20
890.928556
40
0.300000
100
AcDbArc
50
0.000000
51
89.999999
0
LINE
5
167
100
AcDbEntity
8
1
100
AcDbLine
6
CONTINUOUS
62
5
10
423.616181
20
890.928556
11
423.616181
21
882.721449
0
ARC
5
168
100
AcDbEntity
8
1
100
AcDbCircle
6
CONTINUOUS
62
5
10
423.316181
20
882.721449
40
0.300000
100
AcDbArc
50
-89.999999
51
0.000000
0
POLYLINE
5
169
100
AcDbEntity
8
1
6
CONTINUOUS
62
5
100
AcDb2dPolyline
66
1
10
0.0
20
0.0
30
0.0
70
1
0
VERTEX
5
16a
100
AcDbEntity
8
1
100
AcDbVertex
100
AcDb2dVertex
62
5
10
413.016181
20
914.628556
0
VERTEX
5
16b
100
AcDbEntity
8
1
100
AcDbVertex
100
AcDb2dVertex
62
5
10
419.516181
20
914.628556
0
VERTEX
5
16c
100
AcDbEntity
8
1
100
AcDbVertex
100
AcDb2dVertex
62
5
10
419.516181
20
915.628556
0
VERTEX
5
16d
100
AcDbEntity
8
1
100
AcDbVertex
100
AcDb2dVertex
62
5
10
413.016181
20
915.628556
0
SEQEND
5
16e
100
AcDbEntity
8
1
0
LINE
5
16f
100
AcDbEntity
8
1
100
AcDbLine
6
CONTINUOUS
62
5
10
417.016181
20
916.198857
11
416.016181
21
916.198857
0
POLYLINE
5
170
100
AcDbEntity
8
1
6
CONTINUOUS
62
5
100
AcDb2dPolyline
66
1
10
0.0
20
0.0
30
0.0
70
1
0
VERTEX
5
171
100
AcDbEntity
8
1
100
AcDbVertex
100
AcDb2dVertex
62
5
10
417.016181
20
915.628556
0
VERTEX
5
172
100
AcDbEntity
8
1
100
AcDbVertex
100
AcDb2dVertex
62
5
10
417.016181
20
916.198857
0
VERTEX
5
173
100
AcDbEntity
8
1
100
AcDbVertex
100
AcDb2dVertex
62
5
10
416.986482
20
916.228556
0
VERTEX
5
174
100
AcDbEntity
8
1
100
AcDbVertex
100
AcDb2dVertex
62
5
10
416.045879
20
916.228556
0
VERTEX
5
175
100
AcDbEntity
8
1
100
AcDbVertex
100
AcDb2dVertex
62
5
10
416.016181
20
916.198857
0
VERTEX
5
176
100
AcDbEntity
8
1
100
AcDbVertex
100
AcDb2dVertex
62
5
10
416.016181
20
915.628556
0
VERTEX
5
177
100
AcDbEntity
8
1
100
AcDbVertex
100
AcDb2dVertex
62
5
10
417.016181
20
915.628556
0
SEQEND
5
178
100
AcDbEntity
8
1
0
LINE
5
179
100
AcDbEntity
8
1
100
AcDbLine
6
CONTINUOUS
62
5
10
413.516181
20
915.628556
11
413.516181
21
914.628556
0
LINE
5
17a
100
AcDbEntity
8
1
100
AcDbLine
6
CONTINUOUS
62
5
10
414.466181
20
916.198857
11
413.466181
21
916.198857
0
POLYLINE
5
17b
100
AcDbEntity
8
1
6
CONTINUOUS
62
5
100
AcDb2dPolyline
66
1
10
0.0
20
0.0
30
0.0
70
1
0
VERTEX
5
17c
100
AcDbEntity
8
1
100
AcDbVertex
100
AcDb2dVertex
62
5
10
414.466181
20
915.628556
0
VERTEX
5
17d
100
AcDbEntity
8
1
100
AcDbVertex
100
AcDb2dVertex
62
5
10
414.466181
20
916.198857
0
VERTEX
5
17e
100
AcDbEntity
8
1
100
AcDbVertex
100
AcDb2dVertex
62
5
10
414.436482
20
916.228556
0
VERTEX
5
17f
100
AcDbEntity
8
1
100
AcDbVertex
100
AcDb2dVertex
62
5
10
413.495879
20
916.228556
0
VERTEX
5
180
100
AcDbEntity
8
1
100
AcDbVertex
100
AcDb2dVertex
62
5
10
413.466181
20
916.198857
0
VERTEX
5
181
100
AcDbEntity
8
1
100
AcDbVertex
100
AcDb2dVertex
62
5
10
413.466181
20
915.628556
0
VERTEX
5
182
100
AcDbEntity
8
1
100
AcDbVertex
100
AcDb2dVertex
62
5
10
414.466181
20
915.628556
0
SEQEND
5
183
100
AcDbEntity
8
1
0
POLYLINE
5
184
100
AcDbEntity
8
1
6
CONTINUOUS
62
5
100
AcDb2dPolyline
66
1
10
0.0
20
0.0
30
0.0
70
0
0
VERTEX
5
185
100
AcDbEntity
8
1
100
AcDbVertex
100
AcDb2dVertex
62
5
10
413.666181
20
913.218556
0
VERTEX
5
186
100
AcDbEntity
8
1
100
AcDbVertex
100
AcDb2dVertex
62
5
10
413.666181
20
912.200681
0
VERTEX
5
187
100
AcDbEntity
8
1
100
AcDbVertex
100
AcDb2dVertex
62
5
10
413.738306
20
912.128556
0
VERTEX
5
188
100
AcDbEntity
8
1
100
AcDbVertex
100
AcDb2dVertex
62
5
10
414.194056
20
912.128556
0
VERTEX
5
189
100
AcDbEntity
8
1
100
AcDbVertex
100
AcDb2dVertex
62
5
10
414.266181
20
912.200681
0
VERTEX
5
18a
100
AcDbEntity
8
1
100
AcDbVertex
100
AcDb2dVertex
62
5
10
414.266181
20
913.218556
0
SEQEND
5
18b
100
AcDbEntity
8
1
0
LINE
5
18c
100
AcDbEntity
8
1
100
AcDbLine
6
CONTINUOUS
62
5
10
413.720331
20
913.218556
11
413.720331
21
912.146531
0
LINE
5
18d
100
AcDbEntity
8
1
100
AcDbLine
6
CONTINUOUS
62
5
10
413.666181
20
912.200681
11
414.266181
21
912.200681
0
LINE
5
18e
100
AcDbEntity
8
1
100
AcDbLine
6
CONTINUOUS
62
5
10
413.666181
20
914.528556
11
414.266181
21
914.528556
0
LINE
5
18f
100
AcDbEntity
8
1
100
AcDbLine
6
CONTINUOUS
62
5
10
413.666181
20
914.628556
11
413.666181
21
913.668556
0
POLYLINE
5
190
100
AcDbEntity
8
1
6
CONTINUOUS
62
5
100
AcDb2dPolyline
66
1
10
0.0
20
0.0
30
0.0
70
0
0
VERTEX
5
191
100
AcDbEntity
8
1
100
AcDbVertex
100
AcDb2dVertex
62
5
10
413.666181
20
914.622346
0
VERTEX
5
192
100
AcDbEntity
8
1
100
AcDbVertex
100
AcDb2dVertex
62
5
10
413.720331
20
914.528556
0
VERTEX
5
193
100
AcDbEntity
8
1
100
AcDbVertex
100
AcDb2dVertex
62
5
10
413.720331
20
913.668556
0
SEQEND
5
194
100
AcDbEntity
8
1
0
LINE
5
195
100
AcDbEntity
8
1
100
AcDbLine
6
CONTINUOUS
62
5
10
414.212031
20
913.218556
11
414.212031
21
912.146531
0
LINE
5
196
100
AcDbEntity
8
1
100
AcDbLine
6
CONTINUOUS
62
5
10
414.266181
20
913.668556
11
414.266181
21
914.628556
0
POLYLINE
5
197
100
AcDbEntity
8
1
6
CONTINUOUS
62
5
100
AcDb2dPolyline
66
1
10
0.0
20
0.0
30
0.0
70
0
0
VERTEX
5
198
100
AcDbEntity
8
1
100
AcDbVertex
100
AcDb2dVertex
62
5
10
414.266181
20
914.622346
0
VERTEX
5
199
100
AcDbEntity
8
1
100
AcDbVertex
100
AcDb2dVertex
62
5
10
414.212031
20
914.528556
0
VERTEX
5
19a
100
AcDbEntity
8
1
100
AcDbVertex
100
AcDb2dVertex
62
5
10
414.212031
20
913.668556
0
SEQEND
5
19b
100
AcDbEntity
8
1
0
LINE
5
19c
100
AcDbEntity
8
1
100
AcDbLine
6
CONTINUOUS
62
5
10
419.016181
20
915.628556
11
419.016181
21
914.628556
0
LINE
5
19d
100
AcDbEntity
8
1
100
AcDbLine
6
CONTINUOUS
62
5
10
419.016181
20
916.198857
11
418.016181
21
916.198857
0
POLYLINE
5
19e
100
AcDbEntity
8
1
6
CONTINUOUS
62
5
100
AcDb2dPolyline
66
1
10
0.0
20
0.0
30
0.0
70
1
0
VERTEX
5
19f
100
AcDbEntity
8
1
100
AcDbVertex
100
AcDb2dVertex
62
5
10
419.016181
20
915.628556
0
VERTEX
5
1a0
100
AcDbEntity
8
1
100
AcDbVertex
100
AcDb2dVertex
62
5
10
419.016181
20
916.198857
0
VERTEX
5
1a1
100
AcDbEntity
8
1
100
AcDbVertex
100
AcDb2dVertex
62
5
10
418.986482
20
916.228556
0
VERTEX
5
1a2
100
AcDbEntity
8
1
100
AcDbVertex
100
AcDb2dVertex
62
5
10
418.045879
20
916.228556
0
VERTEX
5
1a3
100
AcDbEntity
8
1
100
AcDbVertex
100
AcDb2dVertex
62
5
10
418.016181
20
916.198857
0
VERTEX
5
1a4
100
AcDbEntity
8
1
100
AcDbVertex
100
AcDb2dVertex
62
5
10
418.016181
20
915.628556
0
VERTEX
5
1a5
100
AcDbEntity
8
1
100
AcDbVertex
100
AcDb2dVertex
62
5
10
419.016181
20
915.628556
0
SEQEND
5
1a6
100
AcDbEntity
8
1
0
LINE
5
1a7
100
AcDbEntity
8
6
100
AcDbLine
6
CONTINUOUS
62
5
10
413.566181
20
896.587955
11
413.316181
21
896.587955
0
LINE
5
1a8
100
AcDbEntity
8
1
100
AcDbLine
6
CONTINUOUS
62
5
10
413.566181
20
896.587955
11
413.316181
21
896.587955
0
LINE
5
1a9
100
AcDbEntity
8
1
100
AcDbLine
6
CONTINUOUS
62
5
10
413.590929
20
902.050222
11
413.590929
21
901.200222
0
POLYLINE
5
1aa
100
AcDbEntity
8
1
6
CONTINUOUS
62
5
100
AcDb2dPolyline
66
1
10
0.0
20
0.0
30
0.0
70
1
0
VERTEX
5
1ab
100
AcDbEntity
8
1
100
AcDbVertex
100
AcDb2dVertex
62
5
10
414.066181
20
902.050222
0
VERTEX
5
1ac
100
AcDbEntity
8
1
100
AcDbVertex
100
AcDb2dVertex
62
5
10
413.590929
20
902.050222
0
VERTEX
5
1ad
100
AcDbEntity
8
1
100
AcDbVertex
100
AcDb2dVertex
62
5
10
413.566181
20
902.025474
0
VERTEX
5
1ae
100
AcDbEntity
8
1
100
AcDbVertex
100
AcDb2dVertex
62
5
10
413.566181
20
901.224971
0
VERTEX
5
1af
100
AcDbEntity
8
1
100
AcDbVertex
100
AcDb2dVertex
62
5
10
413.590929
20
901.200222
0
VERTEX
5
1b0
100
AcDbEntity
8
1
100
AcDbVertex
100
AcDb2dVertex
62
5
10
414.066181
20
901.200222
0
VERTEX
5
1b1
100
AcDbEntity
8
1
100
AcDbVertex
100
AcDb2dVertex
62
5
10
414.066181
20
902.050222
0
SEQEND
5
1b2
100
AcDbEntity
8
1
0
LINE
5
1b3
100
AcDbEntity
8
1
100
AcDbLine
6
CONTINUOUS
62
5
10
412.555779
20
906.145080
11
412.555779
21
907.445080
0
POLYLINE
5
1b4
100
AcDbEntity
8
1
6
CONTINUOUS
62
5
100
AcDb2dPolyline
66
1
10
0.0
20
0.0
30
0.0
70
1
0
VERTEX
5
1b5
100
AcDbEntity
8
1
100
AcDbVertex
100
AcDb2dVertex
62
5
10
413.316181
20
906.145080
0
VERTEX
5
1b6
100
AcDbEntity
8
1
100
AcDbVertex
100
AcDb2dVertex
62
5
10
412.555779
20
906.145080
0
VERTEX
5
1b7
100
AcDbEntity
8
1
100
AcDbVertex
100
AcDb2dVertex
62
5
10
412.516181
20
906.184678
0
VERTEX
5
1b8
100
AcDbEntity
8
1
100
AcDbVertex
100
AcDb2dVertex
62
5
10
412.516181
20
907.405482
0
VERTEX
5
1b9
100
AcDbEntity
8
1
100
AcDbVertex
100
AcDb2dVertex
62
5
10
412.555779
20
907.445080
0
VERTEX
5
1ba
100
AcDbEntity
8
1
100
AcDbVertex
100
AcDb2dVertex
62
5
10
413.316181
20
907.445080
0
VERTEX
5
1bb
100
AcDbEntity
8
1
100
AcDbVertex
100
AcDb2dVertex
62
5
10
413.316181
20
906.145080
0
SEQEND
5
1bc
100
AcDbEntity
8
1
0
LINE
5
1bd
100
AcDbEntity
8
6
100
AcDbLine
6
CONTINUOUS
62
5
10
413.566181
20
906.749156
11
413.316181
21
906.749156
0
LINE
5
1be
100
AcDbEntity
8
1
100
AcDbLine
6
CONTINUOUS
62
5
10
413.566181
20
906.749156
11
413.316181
21
906.749156
0
LINE
5
1bf
100
AcDbEntity
8
6
100
AcDbLine
6
CONTINUOUS
62
5
10
413.316181
20
901.668556
11
413.316181
21
908.168577
0
ARC
5
1c0
100
AcDbEntity
8
1
100
AcDbCircle
6
CONTINUOUS
62
5
10
413.466181
20
908.668556
40
0.500000
100
AcDbArc
50
179.999998
51
-89.999999
0
LINE
5
1c1
100
AcDbEntity
8
1
100
AcDbLine
6
CONTINUOUS
62
5
10
412.966181
20
908.668556
11
412.966181
21
913.168556
0
ARC
5
1c2
100
AcDbEntity
8
1
100
AcDbCircle
6
CONTINUOUS
62
5
10
413.466181
20
913.168556
40
0.500000
100
AcDbArc
50
89.999999
51
179.999998
0
POLYLINE
5
1c3
100
AcDbEntity
8
1
6
CONTINUOUS
62
5
100
AcDb2dPolyline
66
1
10
0.0
20
0.0
30
0.0
70
0
0
VERTEX
5
1c4
100
AcDbEntity
8
1
100
AcDbVertex
100
AcDb2dVertex
62
5
10
413.466181
20
913.668556
0
VERTEX
5
1c5
100
AcDbEntity
8
1
100
AcDbVertex
100
AcDb2dVertex
62
5
10
414.966181
20
913.668556
0
VERTEX
5
1c6
100
AcDbEntity
8
1
100
AcDbVertex
100
AcDb2dVertex
62
5
10
414.966181
20
913.218556
0
VERTEX
5
1c7
100
AcDbEntity
8
1
100
AcDbVertex
100
AcDb2dVertex
62
5
10
413.466181
20
913.218556
0
SEQEND
5
1c8
100
AcDbEntity
8
1
0
ARC
5
1c9
100
AcDbEntity
8
1
100
AcDbCircle
6
CONTINUOUS
62
5
10
413.466181
20
913.168556
40
0.050000
100
AcDbArc
50
89.999999
51
179.999998
0
LINE
5
1ca
100
AcDbEntity
8
1
100
AcDbLine
6
CONTINUOUS
62
5
10
413.416181
20
913.168556
11
413.416181
21
908.668556
0
ARC
5
1cb
100
AcDbEntity
8
1
100
AcDbCircle
6
CONTINUOUS
62
5
10
413.466181
20
908.668556
40
0.050000
100
AcDbArc
50
179.999998
51
-89.999999
0
LINE
5
1cc
100
AcDbEntity
8
1
100
AcDbLine
6
CONTINUOUS
62
5
10
413.466181
20
908.618556
11
414.066181
21
908.618556
0
LINE
5
1cd
100
AcDbEntity
8
1
100
AcDbLine
6
CONTINUOUS
62
5
10
414.066181
20
908.168556
11
413.466181
21
908.168556
0
LINE
5
1ce
100
AcDbEntity
8
6
100
AcDbLine
6
CONTINUOUS
62
5
10
414.066181
20
908.168577
11
413.316181
21
908.168577
0
LINE
5
1cf
100
AcDbEntity
8
1
100
AcDbLine
6
CONTINUOUS
62
5
10
413.590929
20
907.553556
11
413.590929
21
906.703556
0
POLYLINE
5
1d0
100
AcDbEntity
8
1
6
CONTINUOUS
62
5
100
AcDb2dPolyline
66
1
10
0.0
20
0.0
30
0.0
70
1
0
VERTEX
5
1d1
100
AcDbEntity
8
1
100
AcDbVertex
100
AcDb2dVertex
62
5
10
414.066181
20
907.553556
0
VERTEX
5
1d2
100
AcDbEntity
8
1
100
AcDbVertex
100
AcDb2dVertex
62
5
10
413.590929
20
907.553556
0
VERTEX
5
1d3
100
AcDbEntity
8
1
100
AcDbVertex
100
AcDb2dVertex
62
5
10
413.566181
20
907.528807
0
VERTEX
5
1d4
100
AcDbEntity
8
1
100
AcDbVertex
100
AcDb2dVertex
62
5
10
413.566181
20
906.728304
0
VERTEX
5
1d5
100
AcDbEntity
8
1
100
AcDbVertex
100
AcDb2dVertex
62
5
10
413.590929
20
906.703556
0
VERTEX
5
1d6
100
AcDbEntity
8
1
100
AcDbVertex
100
AcDb2dVertex
62
5
10
414.066181
20
906.703556
0
VERTEX
5
1d7
100
AcDbEntity
8
1
100
AcDbVertex
100
AcDb2dVertex
62
5
10
414.066181
20
907.553556
0
SEQEND
5
1d8
100
AcDbEntity
8
1
0
LINE
5
1d9
100
AcDbEntity
8
1
100
AcDbLine
6
CONTINUOUS
62
5
10
412.116164
20
888.528556
11
414.216164
21
888.528556
0
POLYLINE
5
1da
100
AcDbEntity
8
1
6
CONTINUOUS
62
5
100
AcDb2dPolyline
66
1
10
0.0
20
0.0
30
0.0
70
0
0
VERTEX
5
1db
100
AcDbEntity
8
1
100
AcDbVertex
100
AcDb2dVertex
62
5
10
414.066181
20
894.968556
0
VERTEX
5
1dc
100
AcDbEntity
8
1
100
AcDbVertex
100
AcDb2dVertex
62
5
10
412.966181
20
894.968556
0
VERTEX
5
1dd
100
AcDbEntity
8
1
100
AcDbVertex
100
AcDb2dVertex
62
5
10
412.966181
20
894.518556
0
VERTEX
5
1de
100
AcDbEntity
8
1
100
AcDbVertex
100
AcDb2dVertex
62
5
10
414.066181
20
894.518556
0
SEQEND
5
1df
100
AcDbEntity
8
1
0
LINE
5
1e0
100
AcDbEntity
8
6
100
AcDbLine
6
CONTINUOUS
62
5
10
414.066181
20
895.168531
11
413.316181
21
895.168531
0
LINE
5
1e1
100
AcDbEntity
8
1
100
AcDbLine
6
CONTINUOUS
62
5
10
413.466181
20
893.898254
11
414.466181
21
893.898254
0
POLYLINE
5
1e2
100
AcDbEntity
8
1
6
CONTINUOUS
62
5
100
AcDb2dPolyline
66
1
10
0.0
20
0.0
30
0.0
70
0
0
VERTEX
5
1e3
100
AcDbEntity
8
1
100
AcDbVertex
100
AcDb2dVertex
62
5
10
413.466181
20
894.468556
0
VERTEX
5
1e4
100
AcDbEntity
8
1
100
AcDbVertex
100
AcDb2dVertex
62
5
10
413.466181
20
893.898254
0
VERTEX
5
1e5
100
AcDbEntity
8
1
100
AcDbVertex
100
AcDb2dVertex
62
5
10
413.495879
20
893.868556
0
VERTEX
5
1e6
100
AcDbEntity
8
1
100
AcDbVertex
100
AcDb2dVertex
62
5
10
414.436482
20
893.868556
0
VERTEX
5
1e7
100
AcDbEntity
8
1
100
AcDbVertex
100
AcDb2dVertex
62
5
10
414.466181
20
893.898254
0
VERTEX
5
1e8
100
AcDbEntity
8
1
100
AcDbVertex
100
AcDb2dVertex
62
5
10
414.466181
20
894.134176
0
SEQEND
5
1e9
100
AcDbEntity
8
1
0
LINE
5
1ea
100
AcDbEntity
8
1
100
AcDbLine
6
CONTINUOUS
62
5
10
414.066181
20
894.468556
11
413.466181
21
894.468556
0
LINE
5
1eb
100
AcDbEntity
8
1
100
AcDbLine
6
CONTINUOUS
62
5
10
413.666181
20
894.518556
11
413.666181
21
894.468556
0
LINE
5
1ec
100
AcDbEntity
8
1
100
AcDbLine
6
CONTINUOUS
62
5
10
414.066181
20
895.096431
11
413.666181
21
895.096431
0
POLYLINE
5
1ed
100
AcDbEntity
8
1
6
CONTINUOUS
62
5
100
AcDb2dPolyline
66
1
10
0.0
20
0.0
30
0.0
70
0
0
VERTEX
5
1ee
100
AcDbEntity
8
1
100
AcDbVertex
100
AcDb2dVertex
62
5
10
414.066181
20
895.168556
0
VERTEX
5
1ef
100
AcDbEntity
8
1
100
AcDbVertex
100
AcDb2dVertex
62
5
10
413.738306
20
895.168556
0
VERTEX
5
1f0
100
AcDbEntity
8
1
100
AcDbVertex
100
AcDb2dVertex
62
5
10
413.666181
20
895.096431
0
VERTEX
5
1f1
100
AcDbEntity
8
1
100
AcDbVertex
100
AcDb2dVertex
62
5
10
413.666181
20
894.968556
0
SEQEND
5
1f2
100
AcDbEntity
8
1
0
LINE
5
1f3
100
AcDbEntity
8
1
100
AcDbLine
6
CONTINUOUS
62
5
10
413.720331
20
894.968556
11
413.720331
21
895.150581
0
LINE
5
1f4
100
AcDbEntity
8
1
100
AcDbLine
6
CONTINUOUS
62
5
10
412.216164
20
887.328556
11
414.216164
21
887.328556
0
LINE
5
1f5
100
AcDbEntity
8
1
100
AcDbLine
6
CONTINUOUS
62
5
10
414.216164
20
885.303991
11
414.516164
21
885.303991
0
ARC
5
1f6
100
AcDbEntity
8
1
100
AcDbCircle
6
CONTINUOUS
62
5
10
415.016164
20
889.028556
40
0.500000
100
AcDbArc
50
-89.999999
51
0.000000
0
LINE
5
1f7
100
AcDbEntity
8
1
100
AcDbLine
6
CONTINUOUS
62
5
10
415.516164
20
889.028556
11
415.516181
21
892.128556
0
ARC
5
1f8
100
AcDbEntity
8
1
100
AcDbCircle
6
CONTINUOUS
62
5
10
415.016181
20
892.128556
40
0.500000
100
AcDbArc
50
0.000000
51
89.999999
0
POLYLINE
5
1f9
100
AcDbEntity
8
1
6
CONTINUOUS
62
5
100
AcDb2dPolyline
66
1
10
0.0
20
0.0
30
0.0
70
0
0
VERTEX
5
1fa
100
AcDbEntity
8
1
100
AcDbVertex
100
AcDb2dVertex
62
5
10
414.516164
20
886.553556
0
VERTEX
5
1fb
100
AcDbEntity
8
1
100
AcDbVertex
100
AcDb2dVertex
62
5
10
414.516164
20
888.528556
0
VERTEX
5
1fc
100
AcDbEntity
8
1
100
AcDbVertex
100
AcDb2dVertex
62
5
10
415.016164
20
888.528556
0
SEQEND
5
1fd
100
AcDbEntity
8
1
0
LINE
5
1fe
100
AcDbEntity
8
1
100
AcDbLine
6
CONTINUOUS
62
5
10
414.216164
20
878.786204
11
414.216164
21
889.028556
0
ARC
5
1ff
100
AcDbEntity
8
1
100
AcDbCircle
6
CONTINUOUS
62
5
10
411.716164
20
880.528556
40
0.500000
100
AcDbArc
50
-89.999999
51
0.000000
0
LINE
5
200
100
AcDbEntity
8
1
100
AcDbLine
6
CONTINUOUS
62
5
10
411.716164
20
880.028556
11
411.716164
21
880.028556
0
ARC
5
201
100
AcDbEntity
8
1
100
AcDbCircle
6
CONTINUOUS
62
5
10
411.716164
20
880.528556
40
0.500000
100
AcDbArc
50
-168.463039
51
-89.999999
0
POLYLINE
5
202
100
AcDbEntity
8
1
6
CONTINUOUS
62
5
100
AcDb2dPolyline
66
1
10
0.0
20
0.0
30
0.0
70
0
0
VERTEX
5
203
100
AcDbEntity
8
1
100
AcDbVertex
100
AcDb2dVertex
62
5
10
412.116164
20
888.448556
0
VERTEX
5
204
100
AcDbEntity
8
1
100
AcDbVertex
100
AcDb2dVertex
62
5
10
412.216164
20
888.448556
0
VERTEX
5
205
100
AcDbEntity
8
1
100
AcDbVertex
100
AcDb2dVertex
62
5
10
412.216164
20
880.528556
0
SEQEND
5
206
100
AcDbEntity
8
1
0
POLYLINE
5
207
100
AcDbEntity
8
1
6
CONTINUOUS
62
5
100
AcDb2dPolyline
66
1
10
0.0
20
0.0
30
0.0
70
0
0
VERTEX
5
208
100
AcDbEntity
8
1
100
AcDbVertex
100
AcDb2dVertex
62
5
10
415.016181
20
892.628556
0
VERTEX
5
209
100
AcDbEntity
8
1
100
AcDbVertex
100
AcDb2dVertex
62
5
10
414.516181
20
892.628556
0
VERTEX
5
20a
100
AcDbEntity
8
1
100
AcDbVertex
100
AcDb2dVertex
62
5
10
414.516181
20
910.628556
0
VERTEX
5
20b
100
AcDbEntity
8
1
100
AcDbVertex
100
AcDb2dVertex
62
5
10
415.016181
20
910.628556
0
SEQEND
5
20c
100
AcDbEntity
8
1
0
POLYLINE
5
20d
100
AcDbEntity
8
1
6
CONTINUOUS
62
5
100
AcDb2dPolyline
66
1
10
0.0
20
0.0
30
0.0
70
0
0
VERTEX
5
20e
100
AcDbEntity
8
1
100
AcDbVertex
100
AcDb2dVertex
62
5
10
414.066181
20
895.168556
0
VERTEX
5
20f
100
AcDbEntity
8
1
100
AcDbVertex
100
AcDb2dVertex
62
5
10
413.316181
20
895.168556
0
VERTEX
5
210
100
AcDbEntity
8
1
100
AcDbVertex
100
AcDb2dVertex
62
5
10
413.316181
20
908.168556
0
VERTEX
5
211
100
AcDbEntity
8
1
100
AcDbVertex
100
AcDb2dVertex
62
5
10
414.066181
20
908.168556
0
SEQEND
5
212
100
AcDbEntity
8
1
0
POLYLINE
5
213
100
AcDbEntity
8
1
6
CONTINUOUS
62
5
100
AcDb2dPolyline
66
1
10
0.0
20
0.0
30
0.0
70
1
0
VERTEX
5
214
100
AcDbEntity
8
1
100
AcDbVertex
100
AcDb2dVertex
62
5
10
414.066181
20
909.134176
0
VERTEX
5
215
100
AcDbEntity
8
1
100
AcDbVertex
100
AcDb2dVertex
62
5
10
414.066181
20
894.134176
0
VERTEX
5
216
100
AcDbEntity
8
1
100
AcDbVertex
100
AcDb2dVertex
62
5
10
414.516181
20
894.134176
0
VERTEX
5
217
100
AcDbEntity
8
1
100
AcDbVertex
100
AcDb2dVertex
62
5
10
414.516181
20
909.134176
0
SEQEND
5
218
100
AcDbEntity
8
1
0
LINE
5
219
100
AcDbEntity
8
6
100
AcDbLine
6
CONTINUOUS
62
5
10
413.316181
20
895.168531
11
413.316181
21
901.668556
0
LINE
5
21a
100
AcDbEntity
8
1
100
AcDbLine
6
CONTINUOUS
62
5
10
412.555779
20
897.192031
11
412.555779
21
895.892031
0
POLYLINE
5
21b
100
AcDbEntity
8
1
6
CONTINUOUS
62
5
100
AcDb2dPolyline
66
1
10
0.0
20
0.0
30
0.0
70
1
0
VERTEX
5
21c
100
AcDbEntity
8
1
100
AcDbVertex
100
AcDb2dVertex
62
5
10
413.316181
20
897.192031
0
VERTEX
5
21d
100
AcDbEntity
8
1
100
AcDbVertex
100
AcDb2dVertex
62
5
10
412.555779
20
897.192031
0
VERTEX
5
21e
100
AcDbEntity
8
1
100
AcDbVertex
100
AcDb2dVertex
62
5
10
412.516181
20
897.152433
0
VERTEX
5
21f
100
AcDbEntity
8
1
100
AcDbVertex
100
AcDb2dVertex
62
5
10
412.516181
20
895.931629
0
VERTEX
5
220
100
AcDbEntity
8
1
100
AcDbVertex
100
AcDb2dVertex
62
5
10
412.555779
20
895.892031
0
VERTEX
5
221
100
AcDbEntity
8
1
100
AcDbVertex
100
AcDb2dVertex
62
5
10
413.316181
20
895.892031
0
VERTEX
5
222
100
AcDbEntity
8
1
100
AcDbVertex
100
AcDb2dVertex
62
5
10
413.316181
20
897.192031
0
SEQEND
5
223
100
AcDbEntity
8
1
0
LINE
5
224
100
AcDbEntity
8
1
100
AcDbLine
6
CONTINUOUS
62
5
10
413.590929
20
896.553556
11
413.590929
21
895.703556
0
POLYLINE
5
225
100
AcDbEntity
8
1
6
CONTINUOUS
62
5
100
AcDb2dPolyline
66
1
10
0.0
20
0.0
30
0.0
70
1
0
VERTEX
5
226
100
AcDbEntity
8
1
100
AcDbVertex
100
AcDb2dVertex
62
5
10
414.066181
20
896.553556
0
VERTEX
5
227
100
AcDbEntity
8
1
100
AcDbVertex
100
AcDb2dVertex
62
5
10
413.590929
20
896.553556
0
VERTEX
5
228
100
AcDbEntity
8
1
100
AcDbVertex
100
AcDb2dVertex
62
5
10
413.566181
20
896.528807
0
VERTEX
5
229
100
AcDbEntity
8
1
100
AcDbVertex
100
AcDb2dVertex
62
5
10
413.566181
20
895.728304
0
VERTEX
5
22a
100
AcDbEntity
8
1
100
AcDbVertex
100
AcDb2dVertex
62
5
10
413.590929
20
895.703556
0
VERTEX
5
22b
100
AcDbEntity
8
1
100
AcDbVertex
100
AcDb2dVertex
62
5
10
414.066181
20
895.703556
0
VERTEX
5
22c
100
AcDbEntity
8
1
100
AcDbVertex
100
AcDb2dVertex
62
5
10
414.066181
20
896.553556
0
SEQEND
5
22d
100
AcDbEntity
8
1
0
LINE
5
22e
100
AcDbEntity
8
1
100
AcDbLine
6
CONTINUOUS
62
5
10
415.716177
20
891.378556
11
425.316181
21
891.378556
0
LINE
5
22f
100
AcDbEntity
8
1
100
AcDbLine
6
CONTINUOUS
62
5
10
415.716283
20
911.116888
11
425.316181
21
911.116888
0
ARC
5
230
100
AcDbEntity
8
1
100
AcDbCircle
6
CONTINUOUS
62
5
10
415.016181
20
911.128556
40
0.500000
100
AcDbArc
50
-89.999999
51
0.000000
0
POLYLINE
5
231
100
AcDbEntity
8
1
6
CONTINUOUS
62
5
100
AcDb2dPolyline
66
1
10
0.0
20
0.0
30
0.0
70
0
0
VERTEX
5
232
100
AcDbEntity
8
1
100
AcDbVertex
100
AcDb2dVertex
62
5
10
415.516181
20
911.128556
0
VERTEX
5
233
100
AcDbEntity
8
1
100
AcDbVertex
100
AcDb2dVertex
62
5
10
415.516181
20
913.952504
0
VERTEX
5
234
100
AcDbEntity
8
1
100
AcDbVertex
100
AcDb2dVertex
62
5
10
415.516181
20
914.628556
0
VERTEX
5
235
100
AcDbEntity
8
1
100
AcDbVertex
100
AcDb2dVertex
62
5
10
419.516181
20
914.628556
0
VERTEX
5
236
100
AcDbEntity
8
1
100
AcDbVertex
100
AcDb2dVertex
62
5
10
419.516181
20
914.547818
0
VERTEX
5
237
100
AcDbEntity
8
1
100
AcDbVertex
100
AcDb2dVertex
62
5
10
425.316181
20
914.547818
0
SEQEND
5
238
100
AcDbEntity
8
1
0
ARC
5
239
100
AcDbEntity
8
1
100
AcDbCircle
6
CONTINUOUS
62
5
10
425.316181
20
914.347818
40
0.200000
100
AcDbArc
50
0.000000
51
89.999999
0
LINE
5
23a
100
AcDbEntity
8
1
100
AcDbLine
6
CONTINUOUS
62
5
10
425.516181
20
914.347818
11
425.516181
21
913.828556
0
LINE
5
23b
100
AcDbEntity
8
1
100
AcDbLine
6
DOT2
62
5
10
412.470372
20
878.028556
11
426.633969
21
878.028556
0
LINE
5
23c
100
AcDbEntity
8
1
100
AcDbLine
6
CONTINUOUS
62
5
10
415.016164
20
882.278556
11
425.316181
21
882.278556
0
ARC
5
23d
100
AcDbEntity
8
1
100
AcDbCircle
6
CONTINUOUS
62
5
10
423.216181
20
884.978520
40
0.300000
100
AcDbArc
50
0.000000
51
89.999999
0
LINE
5
23e
100
AcDbEntity
8
1
100
AcDbLine
6
CONTINUOUS
62
5
10
423.216181
20
885.278520
11
415.016164
21
885.278520
0
ARC
5
23f
100
AcDbEntity
8
1
100
AcDbCircle
6
CONTINUOUS
62
5
10
423.216181
20
888.628271
40
0.300000
100
AcDbArc
50
-89.999999
51
0.000000
0
LINE
5
240
100
AcDbEntity
8
1
100
AcDbLine
6
CONTINUOUS
62
5
10
415.016164
20
888.328271
11
423.216181
21
888.328271
0
LINE
5
241
100
AcDbEntity
8
6
100
AcDbLine
6
CONTINUOUS
62
5
10
393.666182
20
954.609897
11
388.716182
21
954.609897
0
LINE
5
242
100
AcDbEntity
8
6
100
AcDbLine
6
CONTINUOUS
62
5
10
388.716191
20
944.409878
11
393.666179
21
944.409878
0
LINE
5
243
100
AcDbEntity
8
6
100
AcDbLine
6
CONTINUOUS
62
5
10
388.716188
20
952.309876
11
393.666181
21
952.309876
0
LINE
5
244
100
AcDbEntity
8
6
100
AcDbLine
6
CONTINUOUS
62
5
10
388.716188
20
951.809874
11
393.666181
21
951.809874
0
LINE
5
245
100
AcDbEntity
8
6
100
AcDbLine
6
CONTINUOUS
62
5
10
388.716195
20
954.109876
11
393.666187
21
954.109876
0
LINE
5
246
100
AcDbEntity
8
6
100
AcDbLine
6
CONTINUOUS
62
5
10
388.716182
20
954.609873
11
388.716179
21
948.109873
0
LINE
5
247
100
AcDbEntity
8
6
100
AcDbLine
6
CONTINUOUS
62
5
10
388.716182
20
948.109876
11
388.716182
21
954.609876
0
LINE
5
248
100
AcDbEntity
8
6
100
AcDbLine
6
CONTINUOUS
62
5
10
388.716176
20
948.109873
11
388.716176
21
954.609876
0
LINE
5
249
100
AcDbEntity
8
6
100
AcDbLine
6
CONTINUOUS
62
5
10
388.716176
20
948.109876
11
388.716176
21
954.609934
0
ARC
5
24a
100
AcDbEntity
8
6
100
AcDbCircle
6
CONTINUOUS
62
5
10
387.617617
20
954.409925
40
0.200000
100
AcDbArc
50
89.999887
51
-179.996298
0
LINE
5
24b
100
AcDbEntity
8
6
100
AcDbLine
6
CONTINUOUS
62
5
10
388.717684
20
954.609923
11
387.617419
21
954.609925
0
LINE
5
24c
100
AcDbEntity
8
6
100
AcDbLine
6
CONTINUOUS
62
5
10
387.417693
20
944.409878
11
388.716173
21
944.409878
0
LINE
5
24d
100
AcDbEntity
8
6
100
AcDbLine
6
CONTINUOUS
62
5
10
387.417617
20
954.409912
11
387.418023
21
948.109967
0
LINE
5
24e
100
AcDbEntity
8
6
100
AcDbLine
6
CONTINUOUS
62
5
10
386.217651
20
953.059885
11
387.217651
21
953.059885
0
LINE
5
24f
100
AcDbEntity
8
6
100
AcDbLine
6
CONTINUOUS
62
5
10
387.317688
20
953.059892
11
387.217693
21
953.059900
0
ARC
5
250
100
AcDbEntity
8
6
100
AcDbCircle
6
CONTINUOUS
62
5
10
387.317696
20
953.159892
40
0.100000
100
AcDbArc
50
-90.004613
51
-0.004613
0
LINE
5
251
100
AcDbEntity
8
6
100
AcDbLine
6
CONTINUOUS
62
5
10
388.717684
20
952.309907
11
387.417752
21
952.309907
0
LINE
5
252
100
AcDbEntity
8
6
100
AcDbLine
6
CONTINUOUS
62
5
10
387.417797
20
951.809874
11
388.717684
21
951.809874
0
LINE
5
253
100
AcDbEntity
8
6
100
AcDbLine
6
CONTINUOUS
62
5
10
387.217664
20
948.109907
11
387.217992
21
953.059900
0
LINE
5
254
100
AcDbEntity
8
6
100
AcDbLine
6
CONTINUOUS
62
5
10
386.217651
20
948.109885
11
386.217651
21
953.059885
0
LINE
5
255
100
AcDbEntity
8
6
100
AcDbLine
6
CONTINUOUS
62
5
10
388.716176
20
954.109876
11
387.417636
21
954.109876
0
LINE
5
256
100
AcDbEntity
8
6
100
AcDbLine
6
CONTINUOUS
62
5
10
393.666182
20
954.609897
11
393.666179
21
948.109872
0
LINE
5
257
100
AcDbEntity
8
6
100
AcDbLine
6
CONTINUOUS
62
5
10
393.666176
20
948.109873
11
393.666176
21
954.609876
0
LINE
5
258
100
AcDbEntity
8
6
100
AcDbLine
6
CONTINUOUS
62
5
10
393.666182
20
948.109876
11
393.666182
21
954.609876
0
LINE
5
259
100
AcDbEntity
8
6
100
AcDbLine
6
CONTINUOUS
62
5
10
393.666182
20
954.609873
11
393.666179
21
948.109873
0
LINE
5
25a
100
AcDbEntity
8
6
100
AcDbLine
6
CONTINUOUS
62
5
10
393.766176
20
954.609897
11
393.666182
21
954.609897
0
ARC
5
25b
100
AcDbEntity
8
1
100
AcDbCircle
6
CONTINUOUS
62
5
10
376.266164
20
957.854295
40
0.100000
100
AcDbArc
50
-87.035328
51
0.000000
0
LINE
5
25c
100
AcDbEntity
8
1
100
AcDbLine
6
CONTINUOUS
62
5
10
376.271336
20
957.754429
11
376.266164
21
957.754161
0
POLYLINE
5
25d
100
AcDbEntity
8
1
6
CONTINUOUS
62
5
100
AcDb2dPolyline
66
1
10
0.0
20
0.0
30
0.0
70
0
0
VERTEX
5
25e
100
AcDbEntity
8
1
100
AcDbVertex
100
AcDb2dVertex
62
5
10
376.266164
20
957.754161
0
VERTEX
5
25f
100
AcDbEntity
8
1
100
AcDbVertex
100
AcDb2dVertex
62
5
10
376.266164
20
957.854295
0
VERTEX
5
260
100
AcDbEntity
8
1
100
AcDbVertex
100
AcDb2dVertex
62
5
10
376.266164
20
958.109876
0
VERTEX
5
261
100
AcDbEntity
8
1
100
AcDbVertex
100
AcDb2dVertex
62
5
10
376.366164
20
958.109876
0
VERTEX
5
262
100
AcDbEntity
8
1
100
AcDbVertex
100
AcDb2dVertex
62
5
10
376.366164
20
957.854295
0
SEQEND
5
263
100
AcDbEntity
8
1
0
CIRCLE
5
264
100
AcDbEntity
8
1
100
AcDbCircle
6
DOT2
62
5
10
375.016164
20
948.109876
40
0.500000
0
CIRCLE
5
265
100
AcDbEntity
8
1
100
AcDbCircle
6
CONTINUOUS
62
5
10
375.016164
20
948.109876
40
0.425000
0
LINE
5
266
100
AcDbEntity
8
6
100
AcDbLine
6
CONTINUOUS
62
5
10
381.316180
20
951.959874
11
384.067650
21
951.959874
0
LINE
5
267
100
AcDbEntity
8
6
100
AcDbLine
6
CONTINUOUS
62
5
10
381.316180
20
944.259874
11
384.067650
21
944.259874
0
LINE
5
268
100
AcDbEntity
8
6
100
AcDbLine
6
CONTINUOUS
62
5
10
381.116181
20
948.109874
11
381.116180
21
944.454242
0
ARC
5
269
100
AcDbEntity
8
6
100
AcDbCircle
6
CONTINUOUS
62
5
10
381.316180
20
944.459874
40
0.200000
100
AcDbArc
50
179.999995
51
-89.999999
0
LINE
5
26a
100
AcDbEntity
8
6
100
AcDbLine
6
CONTINUOUS
62
5
10
381.116181
20
948.109874
11
381.116180
21
951.759874
0
LINE
5
26b
100
AcDbEntity
8
6
100
AcDbLine
6
CONTINUOUS
62
5
10
384.167650
20
944.159874
11
384.167650
21
953.059927
0
ARC
5
26c
100
AcDbEntity
8
6
100
AcDbCircle
6
CONTINUOUS
62
5
10
384.067650
20
944.159896
40
0.100000
100
AcDbArc
50
0.000000
51
89.999999
0
ARC
5
26d
100
AcDbEntity
8
6
100
AcDbCircle
6
CONTINUOUS
62
5
10
384.067650
20
952.059874
40
0.100000
100
AcDbArc
50
-89.999999
51
0.000000
0
ARC
5
26e
100
AcDbEntity
8
6
100
AcDbCircle
6
CONTINUOUS
62
5
10
381.316180
20
951.759874
40
0.200000
100
AcDbArc
50
89.999999
51
-179.999995
0
LINE
5
26f
100
AcDbEntity
8
6
100
AcDbLine
6
CONTINUOUS
62
5
10
386.217651
20
953.059885
11
385.467650
21
953.059885
0
LINE
5
270
100
AcDbEntity
8
6
100
AcDbLine
6
CONTINUOUS
62
5
10
384.167650
20
953.059927
11
385.467650
21
953.059880
0
LINE
5
271
100
AcDbEntity
8
6
100
AcDbLine
6
CONTINUOUS
62
5
10
385.467650
20
953.059880
11
385.467651
21
948.109885
0
LINE
5
272
100
AcDbEntity
8
6
100
AcDbLine
6
CONTINUOUS
62
5
10
388.716191
20
942.109876
11
393.666179
21
942.109876
0
LINE
5
273
100
AcDbEntity
8
6
100
AcDbLine
6
CONTINUOUS
62
5
10
393.666176
20
941.609851
11
388.716182
21
941.609851
0
LINE
5
274
100
AcDbEntity
8
6
100
AcDbLine
6
CONTINUOUS
62
5
10
390.016181
20
941.209828
11
390.016181
21
941.259828
0
LINE
5
275
100
AcDbEntity
8
6
100
AcDbLine
6
CONTINUOUS
62
5
10
390.016181
20
941.259828
11
389.116181
21
941.259828
0
LINE
5
276
100
AcDbEntity
8
6
100
AcDbLine
6
CONTINUOUS
62
5
10
389.916181
20
941.259828
11
389.216181
21
941.259828
0
LINE
5
277
100
AcDbEntity
8
6
100
AcDbLine
6
CONTINUOUS
62
5
10
389.916181
20
940.889827
11
389.864228
21
940.859828
0
LINE
5
278
100
AcDbEntity
8
6
100
AcDbLine
6
CONTINUOUS
62
5
10
389.864228
20
940.859828
11
389.268134
21
940.859828
0
LINE
5
279
100
AcDbEntity
8
6
100
AcDbLine
6
CONTINUOUS
62
5
10
389.916181
20
940.889827
11
389.216181
21
940.889827
0
LINE
5
27a
100
AcDbEntity
8
6
100
AcDbLine
6
CONTINUOUS
62
5
10
389.991163
20
939.369838
11
389.441163
21
939.369838
0
LINE
5
27b
100
AcDbEntity
8
6
100
AcDbLine
6
CONTINUOUS
62
5
10
389.991163
20
939.369838
11
389.441163
21
939.369838
0
LINE
5
27c
100
AcDbEntity
8
6
100
AcDbLine
6
CONTINUOUS
62
5
10
389.991163
20
939.369838
11
389.991163
21
939.295936
0
ARC
5
27d
100
AcDbEntity
8
6
100
AcDbCircle
6
CONTINUOUS
62
5
10
389.716163
20
939.869667
40
0.700000
100
AcDbArc
50
-106.957473
51
-72.898099
0
ARC
5
27e
100
AcDbEntity
8
6
100
AcDbCircle
6
CONTINUOUS
62
5
10
389.891163
20
939.295741
40
0.100000
100
AcDbArc
50
-73.042799
51
0.001050
0
ARC
5
27f
100
AcDbEntity
8
6
100
AcDbCircle
6
CONTINUOUS
62
5
10
389.541163
20
939.295741
40
0.100000
100
AcDbArc
50
179.999018
51
-106.956984
0
LINE
5
280
100
AcDbEntity
8
6
100
AcDbLine
6
CONTINUOUS
62
5
10
389.916181
20
941.259828
11
389.916181
21
940.889827
0
LINE
5
281
100
AcDbEntity
8
6
100
AcDbLine
6
CONTINUOUS
62
5
10
389.822443
20
938.041835
11
389.922449
21
937.941824
0
LINE
5
282
100
AcDbEntity
8
6
100
AcDbLine
6
CONTINUOUS
62
5
10
389.822425
20
938.041809
11
389.822425
21
939.177780
0
LINE
5
283
100
AcDbEntity
8
6
100
AcDbLine
6
CONTINUOUS
62
5
10
391.916181
20
940.009828
11
389.316181
21
940.009828
0
LINE
5
284
100
AcDbEntity
8
6
100
AcDbLine
6
CONTINUOUS
62
5
10
389.316182
20
939.369838
11
391.916179
21
939.369838
0
LINE
5
285
100
AcDbEntity
8
6
100
AcDbLine
6
CONTINUOUS
62
5
10
391.916181
20
939.609828
11
389.316181
21
939.609828
0
LINE
5
286
100
AcDbEntity
8
6
100
AcDbLine
6
CONTINUOUS
62
5
10
391.316181
20
941.209828
11
389.916181
21
941.209828
0
LINE
5
287
100
AcDbEntity
8
6
100
AcDbLine
6
CONTINUOUS
62
5
10
389.822425
20
939.114838
11
391.409918
21
939.114838
0
LINE
5
288
100
AcDbEntity
8
6
100
AcDbLine
6
CONTINUOUS
62
5
10
389.922431
20
937.941838
11
391.309929
21
937.941838
0
ARC
5
289
100
AcDbEntity
8
6
100
AcDbCircle
6
CONTINUOUS
62
5
10
387.617693
20
941.809904
40
0.200000
100
AcDbArc
50
179.999997
51
-89.999886
0
LINE
5
28a
100
AcDbEntity
8
6
100
AcDbLine
6
CONTINUOUS
62
5
10
389.116181
20
941.209828
11
389.116181
21
941.609828
0
LINE
5
28b
100
AcDbEntity
8
6
100
AcDbLine
6
CONTINUOUS
62
5
10
389.216181
20
941.209828
11
389.116181
21
941.209828
0
LINE
5
28c
100
AcDbEntity
8
6
100
AcDbLine
6
CONTINUOUS
62
5
10
388.717687
20
942.109876
11
387.417652
21
942.109876
0
LINE
5
28d
100
AcDbEntity
8
6
100
AcDbLine
6
CONTINUOUS
62
5
10
388.717717
20
941.609907
11
387.617693
21
941.609904
0
LINE
5
28e
100
AcDbEntity
8
6
100
AcDbLine
6
CONTINUOUS
62
5
10
389.268134
20
940.859828
11
389.216181
21
940.889827
0
LINE
5
28f
100
AcDbEntity
8
6
100
AcDbLine
6
CONTINUOUS
62
5
10
389.316169
20
939.369838
11
389.316182
21
939.609828
0
LINE
5
290
100
AcDbEntity
8
6
100
AcDbLine
6
CONTINUOUS
62
5
10
389.441163
20
939.369838
11
389.441163
21
939.295936
0
LINE
5
291
100
AcDbEntity
8
6
100
AcDbLine
6
CONTINUOUS
62
5
10
389.316181
20
939.609828
11
389.316181
21
940.009828
0
LINE
5
292
100
AcDbEntity
8
6
100
AcDbLine
6
CONTINUOUS
62
5
10
389.316181
20
940.009828
11
389.116181
21
941.209828
0
LINE
5
293
100
AcDbEntity
8
6
100
AcDbLine
6
CONTINUOUS
62
5
10
389.216181
20
940.889827
11
389.216181
21
941.259828
0
LINE
5
294
100
AcDbEntity
8
6
100
AcDbLine
6
CONTINUOUS
62
5
10
393.815329
20
941.209803
11
394.715330
21
941.209819
0
LINE
5
295
100
AcDbEntity
8
6
100
AcDbLine
6
CONTINUOUS
62
5
10
393.965329
20
941.209806
11
394.665329
21
941.209818
0
LINE
5
296
100
AcDbEntity
8
6
100
AcDbLine
6
CONTINUOUS
62
5
10
393.965334
20
940.889804
11
394.665334
21
940.889817
0
LINE
5
297
100
AcDbEntity
8
6
100
AcDbLine
6
CONTINUOUS
62
5
10
394.017288
20
940.859806
11
394.613382
21
940.859817
0
ARC
5
298
100
AcDbEntity
8
6
100
AcDbCircle
6
CONTINUOUS
62
5
10
393.565360
20
939.558268
40
0.500000
100
AcDbArc
50
0.001047
51
11.769382
0
ARC
5
299
100
AcDbEntity
8
6
100
AcDbCircle
6
CONTINUOUS
62
5
10
393.565360
20
939.558268
40
0.500000
100
AcDbArc
50
0.001047
51
11.769382
0
ARC
5
29a
100
AcDbEntity
8
6
100
AcDbCircle
6
CONTINUOUS
62
5
10
394.315335
20
940.861342
40
0.500000
100
AcDbArc
50
-179.998951
51
-168.230617
0
LINE
5
29b
100
AcDbEntity
8
6
100
AcDbLine
6
CONTINUOUS
62
5
10
393.965334
20
940.889804
11
394.017288
21
940.859806
0
LINE
5
29c
100
AcDbEntity
8
6
100
AcDbLine
6
CONTINUOUS
62
5
10
393.825847
20
940.759356
11
394.054848
21
939.660254
0
LINE
5
29d
100
AcDbEntity
8
6
100
AcDbLine
6
CONTINUOUS
62
5
10
393.815335
20
940.861333
11
393.815301
21
941.609850
0
LINE
5
29e
100
AcDbEntity
8
6
100
AcDbLine
6
CONTINUOUS
62
5
10
393.965329
20
941.209806
11
393.965334
21
940.889804
0
LINE
5
29f
100
AcDbEntity
8
1
100
AcDbLine
6
CONTINUOUS
62
5
10
391.409918
20
938.558268
11
394.232442
21
938.558268
0
LINE
5
2a0
100
AcDbEntity
8
1
100
AcDbLine
6
HIDDEN
62
5
10
394.232451
20
938.059876
11
391.409918
21
938.059876
0
LINE
5
2a1
100
AcDbEntity
8
1
100
AcDbLine
6
CONTINUOUS
62
5
10
391.327929
20
937.959876
11
394.232453
21
937.959876
0
LINE
5
2a2
100
AcDbEntity
8
6
100
AcDbLine
6
CONTINUOUS
62
5
10
392.116181
20
941.209828
11
392.116181
21
941.609828
0
LINE
5
2a3
100
AcDbEntity
8
6
100
AcDbLine
6
CONTINUOUS
62
5
10
392.016181
20
941.209828
11
392.116181
21
941.209828
0
LINE
5
2a4
100
AcDbEntity
8
6
100
AcDbLine
6
CONTINUOUS
62
5
10
392.016181
20
941.259828
11
391.316181
21
941.259828
0
LINE
5
2a5
100
AcDbEntity
8
6
100
AcDbLine
6
CONTINUOUS
62
5
10
392.116181
20
941.259828
11
391.216181
21
941.259828
0
LINE
5
2a6
100
AcDbEntity
8
6
100
AcDbLine
6
CONTINUOUS
62
5
10
392.016181
20
940.889827
11
391.964228
21
940.859828
0
LINE
5
2a7
100
AcDbEntity
8
6
100
AcDbLine
6
CONTINUOUS
62
5
10
391.964228
20
940.859828
11
391.368134
21
940.859828
0
LINE
5
2a8
100
AcDbEntity
8
6
100
AcDbLine
6
CONTINUOUS
62
5
10
392.016181
20
940.889827
11
391.316181
21
940.889827
0
LINE
5
2a9
100
AcDbEntity
8
6
100
AcDbLine
6
CONTINUOUS
62
5
10
391.916175
20
939.369838
11
391.916175
21
939.609828
0
LINE
5
2aa
100
AcDbEntity
8
6
100
AcDbLine
6
CONTINUOUS
62
5
10
391.791167
20
939.369838
11
391.791167
21
939.295936
0
ARC
5
2ab
100
AcDbEntity
8
6
100
AcDbCircle
6
CONTINUOUS
62
5
10
391.691167
20
939.295741
40
0.100000
100
AcDbArc
50
-73.042799
51
0.001050
0
LINE
5
2ac
100
AcDbEntity
8
6
100
AcDbLine
6
CONTINUOUS
62
5
10
391.791167
20
939.369838
11
391.241167
21
939.369838
0
LINE
5
2ad
100
AcDbEntity
8
6
100
AcDbLine
6
CONTINUOUS
62
5
10
391.791167
20
939.369838
11
391.241167
21
939.369838
0
LINE
5
2ae
100
AcDbEntity
8
6
100
AcDbLine
6
CONTINUOUS
62
5
10
391.916181
20
939.609828
11
391.916181
21
940.009828
0
LINE
5
2af
100
AcDbEntity
8
6
100
AcDbLine
6
CONTINUOUS
62
5
10
392.016181
20
941.259828
11
392.016181
21
940.889827
0
LINE
5
2b0
100
AcDbEntity
8
6
100
AcDbLine
6
CONTINUOUS
62
5
10
391.916181
20
940.009828
11
392.116181
21
941.209828
0
LINE
5
2b1
100
AcDbEntity
8
6
100
AcDbLine
6
CONTINUOUS
62
5
10
391.216181
20
941.209828
11
391.216181
21
941.259828
0
LINE
5
2b2
100
AcDbEntity
8
6
100
AcDbLine
6
CONTINUOUS
62
5
10
391.368134
20
940.859828
11
391.316181
21
940.889827
0
LINE
5
2b3
100
AcDbEntity
8
6
100
AcDbLine
6
CONTINUOUS
62
5
10
391.241167
20
939.369838
11
391.241167
21
939.295936
0
ARC
5
2b4
100
AcDbEntity
8
6
100
AcDbCircle
6
CONTINUOUS
62
5
10
391.341167
20
939.295741
40
0.100000
100
AcDbArc
50
179.999018
51
-106.956984
0
ARC
5
2b5
100
AcDbEntity
8
6
100
AcDbCircle
6
CONTINUOUS
62
5
10
391.516167
20
939.869667
40
0.700000
100
AcDbArc
50
-106.957473
51
-72.898099
0
LINE
5
2b6
100
AcDbEntity
8
6
100
AcDbLine
6
CONTINUOUS
62
5
10
391.316181
20
940.889827
11
391.316181
21
941.259828
0
LINE
5
2b7
100
AcDbEntity
8
6
100
AcDbLine
6
CONTINUOUS
62
5
10
391.309908
20
937.941855
11
391.409897
21
938.041844
0
LINE
5
2b8
100
AcDbEntity
8
6
100
AcDbLine
6
CONTINUOUS
62
5
10
391.409918
20
938.041809
11
391.409918
21
939.177777
0
LINE
5
2b9
100
AcDbEntity
8
6
100
AcDbLine
6
CONTINUOUS
62
5
10
394.815337
20
940.809821
11
396.415336
21
940.809850
0
LINE
5
2ba
100
AcDbEntity
8
6
100
AcDbLine
6
CONTINUOUS
62
5
10
394.815359
20
939.609821
11
396.415358
21
939.609850
0
ARC
5
2bb
100
AcDbEntity
8
6
100
AcDbCircle
6
CONTINUOUS
62
5
10
394.815335
20
940.909821
40
0.100000
100
AcDbArc
50
-179.998951
51
-89.998952
0
LINE
5
2bc
100
AcDbEntity
8
6
100
AcDbLine
6
CONTINUOUS
62
5
10
394.613382
20
940.859817
11
394.665334
21
940.889817
0
ARC
5
2bd
100
AcDbEntity
8
6
100
AcDbCircle
6
CONTINUOUS
62
5
10
394.815357
20
939.709821
40
0.100000
100
AcDbArc
50
-179.998951
51
-89.998952
0
LINE
5
2be
100
AcDbEntity
8
6
100
AcDbLine
6
CONTINUOUS
62
5
10
394.665334
20
940.889817
11
394.665329
21
941.209818
0
LINE
5
2bf
100
AcDbEntity
8
6
100
AcDbLine
6
CONTINUOUS
62
5
10
394.715357
20
939.709819
11
394.715330
21
941.209819
0
LINE
5
2c0
100
AcDbEntity
8
6
100
AcDbLine
6
CONTINUOUS
62
5
10
396.415376
20
938.609850
11
394.165376
21
938.609809
0
LINE
5
2c1
100
AcDbEntity
8
6
100
AcDbLine
6
CONTINUOUS
62
5
10
394.515376
20
938.609816
11
396.415376
21
938.609850
0
LINE
5
2c2
100
AcDbEntity
8
6
100
AcDbLine
6
CONTINUOUS
62
5
10
394.265377
20
938.609811
11
394.115377
21
938.609808
0
LINE
5
2c3
100
AcDbEntity
8
6
100
AcDbLine
6
CONTINUOUS
62
5
10
394.115377
20
938.609808
11
394.065376
21
938.659807
0
LINE
5
2c4
100
AcDbEntity
8
6
100
AcDbLine
6
CONTINUOUS
62
5
10
394.065376
20
938.659807
11
394.065360
21
939.558277
0
ARC
5
2c5
100
AcDbEntity
8
6
100
AcDbCircle
6
CONTINUOUS
62
5
10
394.495484
20
938.275708
40
0.100000
100
AcDbArc
50
179.999825
51
-106.956151
0
ARC
5
2c6
100
AcDbEntity
8
6
100
AcDbCircle
6
CONTINUOUS
62
5
10
394.670474
20
938.849637
40
0.700000
100
AcDbArc
50
-106.956746
51
-73.041482
0
ARC
5
2c7
100
AcDbEntity
8
6
100
AcDbCircle
6
CONTINUOUS
62
5
10
394.845509
20
938.275715
40
0.100000
100
AcDbArc
50
-73.041962
51
0.001997
0
LINE
5
2c8
100
AcDbEntity
8
6
100
AcDbLine
6
CONTINUOUS
62
5
10
394.610485
20
936.349807
11
394.610487
21
936.259819
0
ARC
5
2c9
100
AcDbEntity
8
6
100
AcDbCircle
6
CONTINUOUS
62
5
10
394.660487
20
936.259820
40
0.050000
100
AcDbArc
50
-179.999191
51
-89.998982
0
LINE
5
2ca
100
AcDbEntity
8
6
100
AcDbLine
6
CONTINUOUS
62
5
10
394.610338
20
936.350051
11
394.510337
21
936.450049
0
LINE
5
2cb
100
AcDbEntity
8
6
100
AcDbLine
6
CONTINUOUS
62
5
10
394.510403
20
938.168185
11
394.510435
21
936.449780
0
LINE
5
2cc
100
AcDbEntity
8
6
100
AcDbLine
6
CONTINUOUS
62
5
10
396.415307
20
938.349840
11
394.232446
21
938.349800
0
LINE
5
2cd
100
AcDbEntity
8
6
100
AcDbLine
6
CONTINUOUS
62
5
10
394.395483
20
938.349803
11
394.395484
21
938.275902
0
LINE
5
2ce
100
AcDbEntity
8
6
100
AcDbLine
6
CONTINUOUS
62
5
10
394.945459
20
938.349813
11
394.395483
21
938.349803
0
LINE
5
2cf
100
AcDbEntity
8
6
100
AcDbLine
6
CONTINUOUS
62
5
10
394.945459
20
938.349813
11
394.395483
21
938.349803
0
LINE
5
2d0
100
AcDbEntity
8
6
100
AcDbLine
6
CONTINUOUS
62
5
10
394.945459
20
938.349813
11
394.945460
21
938.275912
0
LINE
5
2d1
100
AcDbEntity
8
6
100
AcDbLine
6
CONTINUOUS
62
5
10
394.232441
20
938.609810
11
394.232446
21
938.349727
0
LINE
5
2d2
100
AcDbEntity
8
6
100
AcDbLine
6
CONTINUOUS
62
5
10
386.217651
20
943.159868
11
387.217651
21
943.159868
0
ARC
5
2d3
100
AcDbEntity
8
6
100
AcDbCircle
6
CONTINUOUS
62
5
10
387.317693
20
943.059906
40
0.100000
100
AcDbArc
50
-0.000001
51
89.999999
0
LINE
5
2d4
100
AcDbEntity
8
6
100
AcDbLine
6
CONTINUOUS
62
5
10
387.317693
20
943.159906
11
387.217698
21
943.159906
0
ARC
5
2d5
100
AcDbEntity
8
1
100
AcDbCircle
6
CONTINUOUS
62
5
10
376.266164
20
938.365457
40
0.100000
100
AcDbArc
50
0.000000
51
87.035328
0
LINE
5
2d6
100
AcDbEntity
8
1
100
AcDbLine
6
CONTINUOUS
62
5
10
376.271336
20
938.465323
11
376.266164
21
938.465591
0
POLYLINE
5
2d7
100
AcDbEntity
8
1
6
CONTINUOUS
62
5
100
AcDb2dPolyline
66
1
10
0.0
20
0.0
30
0.0
70
0
0
VERTEX
5
2d8
100
AcDbEntity
8
1
100
AcDbVertex
100
AcDb2dVertex
62
5
10
376.048405
20
938.376735
0
VERTEX
5
2d9
100
AcDbEntity
8
1
100
AcDbVertex
100
AcDb2dVertex
62
5
10
376.266164
20
938.365457
0
VERTEX
5
2da
100
AcDbEntity
8
1
100
AcDbVertex
100
AcDb2dVertex
62
5
10
376.266164
20
938.109876
0
VERTEX
5
2db
100
AcDbEntity
8
1
100
AcDbVertex
100
AcDb2dVertex
62
5
10
376.366164
20
938.109876
0
VERTEX
5
2dc
100
AcDbEntity
8
1
100
AcDbVertex
100
AcDb2dVertex
62
5
10
376.366164
20
938.365457
0
SEQEND
5
2dd
100
AcDbEntity
8
1
0
LINE
5
2de
100
AcDbEntity
8
6
100
AcDbLine
6
CONTINUOUS
62
5
10
384.591181
20
941.569825
11
383.016143
21
941.569825
0
LINE
5
2df
100
AcDbEntity
8
6
100
AcDbLine
6
CONTINUOUS
62
5
10
381.154088
20
941.819874
11
384.584088
21
941.819874
0
LINE
5
2e0
100
AcDbEntity
8
6
100
AcDbLine
6
CONTINUOUS
62
5
10
381.154088
20
942.109874
11
384.914088
21
942.109874
0
LINE
5
2e1
100
AcDbEntity
8
6
100
AcDbLine
6
CONTINUOUS
62
5
10
381.116180
20
942.109874
11
384.966179
21
942.109875
0
LINE
5
2e2
100
AcDbEntity
8
6
100
AcDbLine
6
CONTINUOUS
62
5
10
384.441181
20
939.914905
11
381.591181
21
939.914905
0
LINE
5
2e3
100
AcDbEntity
8
6
100
AcDbLine
6
CONTINUOUS
62
5
10
383.016143
20
941.569825
11
381.441181
21
941.569825
0
ARC
5
2e4
100
AcDbEntity
8
6
100
AcDbCircle
6
CONTINUOUS
62
5
10
381.541050
20
942.319874
40
0.700000
100
AcDbArc
50
-106.957793
51
-73.042459
0
LINE
5
2e5
100
AcDbEntity
8
6
100
AcDbLine
6
CONTINUOUS
62
5
10
381.266123
20
941.819899
11
381.266123
21
941.745997
0
ARC
5
2e6
100
AcDbEntity
8
6
100
AcDbCircle
6
CONTINUOUS
62
5
10
381.716026
20
941.746022
40
0.100000
100
AcDbArc
50
-73.042909
51
0.001050
0
LINE
5
2e7
100
AcDbEntity
8
6
100
AcDbLine
6
CONTINUOUS
62
5
10
381.816074
20
941.819899
11
381.816074
21
941.745997
0
ARC
5
2e8
100
AcDbEntity
8
6
100
AcDbCircle
6
CONTINUOUS
62
5
10
381.366074
20
941.746022
40
0.100000
100
AcDbArc
50
179.998778
51
-106.957259
0
LINE
5
2e9
100
AcDbEntity
8
6
100
AcDbLine
6
CONTINUOUS
62
5
10
381.816074
20
941.819874
11
381.266099
21
941.819874
0
LINE
5
2ea
100
AcDbEntity
8
6
100
AcDbLine
6
CONTINUOUS
62
5
10
381.154088
20
941.819874
11
381.154088
21
942.109874
0
LINE
5
2eb
100
AcDbEntity
8
6
100
AcDbLine
6
CONTINUOUS
62
5
10
381.441181
20
940.064905
11
381.591181
21
939.914905
0
LINE
5
2ec
100
AcDbEntity
8
6
100
AcDbLine
6
CONTINUOUS
62
5
10
381.441181
20
941.628094
11
381.441181
21
940.064905
0
LINE
5
2ed
100
AcDbEntity
8
1
100
AcDbLine
6
DOT2
62
5
10
376.266164
20
938.465591
11
376.266164
21
938.365457
0
ARC
5
2ee
100
AcDbEntity
8
6
100
AcDbCircle
6
CONTINUOUS
62
5
10
384.477085
20
942.319850
40
0.700000
100
AcDbArc
50
-106.957793
51
-73.042459
0
LINE
5
2ef
100
AcDbEntity
8
6
100
AcDbLine
6
CONTINUOUS
62
5
10
384.914088
20
941.819874
11
384.584088
21
941.819874
0
LINE
5
2f0
100
AcDbEntity
8
6
100
AcDbLine
6
CONTINUOUS
62
5
10
384.441181
20
939.914905
11
384.591181
21
940.064905
0
LINE
5
2f1
100
AcDbEntity
8
6
100
AcDbLine
6
CONTINUOUS
62
5
10
384.591181
20
941.628077
11
384.591181
21
940.064905
0
ARC
5
2f2
100
AcDbEntity
8
6
100
AcDbCircle
6
CONTINUOUS
62
5
10
384.302036
20
941.745997
40
0.100000
100
AcDbArc
50
179.998778
51
-106.957259
0
LINE
5
2f3
100
AcDbEntity
8
6
100
AcDbLine
6
CONTINUOUS
62
5
10
384.202061
20
941.819874
11
384.202061
21
941.745973
0
ARC
5
2f4
100
AcDbEntity
8
6
100
AcDbCircle
6
CONTINUOUS
62
5
10
384.652061
20
941.745948
40
0.100000
100
AcDbArc
50
-73.042909
51
0.001050
0
LINE
5
2f5
100
AcDbEntity
8
6
100
AcDbLine
6
CONTINUOUS
62
5
10
384.752036
20
941.819874
11
384.752036
21
941.745973
0
LINE
5
2f6
100
AcDbEntity
8
6
100
AcDbLine
6
CONTINUOUS
62
5
10
384.914088
20
941.819874
11
384.914088
21
942.109874
0
LINE
5
2f7
100
AcDbEntity
8
6
100
AcDbLine
6
CONTINUOUS
62
5
10
385.067650
20
943.159874
11
384.167650
21
943.159874
0
LINE
5
2f8
100
AcDbEntity
8
6
100
AcDbLine
6
CONTINUOUS
62
5
10
384.966179
20
942.109875
11
384.966183
21
943.159874
0
POLYLINE
5
2f9
100
AcDbEntity
8
1
6
CONTINUOUS
62
5
100
AcDb2dPolyline
66
1
10
0.0
20
0.0
30
0.0
70
0
0
VERTEX
5
2fa
100
AcDbEntity
8
1
100
AcDbVertex
100
AcDb2dVertex
62
5
10
394.510423
20
937.109876
0
VERTEX
5
2fb
100
AcDbEntity
8
1
100
AcDbVertex
100
AcDb2dVertex
62
5
10
377.309647
20
937.109876
0
VERTEX
5
2fc
100
AcDbEntity
8
1
100
AcDbVertex
100
AcDb2dVertex
62
5
10
376.459647
20
937.959876
0
SEQEND
5
2fd
100
AcDbEntity
8
1
0
LINE
5
2fe
100
AcDbEntity
8
1
100
AcDbLine
6
CONTINUOUS
62
5
10
376.481133
20
938.558268
11
389.822425
21
938.558268
0
LINE
5
2ff
100
AcDbEntity
8
1
100
AcDbLine
6
HIDDEN
62
5
10
389.822425
20
938.059876
11
376.266164
21
938.059876
0
LINE
5
300
100
AcDbEntity
8
6
100
AcDbLine
6
CONTINUOUS
62
5
10
386.217651
20
943.159868
11
385.467650
21
943.159868
0
LINE
5
301
100
AcDbEntity
8
6
100
AcDbLine
6
CONTINUOUS
62
5
10
385.067650
20
943.159874
11
385.467650
21
943.159888
0
LINE
5
302
100
AcDbEntity
8
6
100
AcDbLine
6
CONTINUOUS
62
5
10
388.716188
20
943.909876
11
393.666176
21
943.909876
0
LINE
5
303
100
AcDbEntity
8
6
100
AcDbLine
6
CONTINUOUS
62
5
10
388.717684
20
943.909907
11
387.417752
21
943.909907
0
LINE
5
304
100
AcDbEntity
8
6
100
AcDbLine
6
CONTINUOUS
62
5
10
381.116180
20
944.454242
11
381.116180
21
942.109874
0
LINE
5
305
100
AcDbEntity
8
6
100
AcDbLine
6
CONTINUOUS
62
5
10
385.467650
20
943.159889
11
385.467651
21
948.109885
0
LINE
5
306
100
AcDbEntity
8
6
100
AcDbLine
6
CONTINUOUS
62
5
10
386.217651
20
948.109885
11
386.217651
21
943.159885
0
LINE
5
307
100
AcDbEntity
8
6
100
AcDbLine
6
CONTINUOUS
62
5
10
387.217651
20
948.109907
11
387.217698
21
943.159906
0
LINE
5
308
100
AcDbEntity
8
6
100
AcDbLine
6
CONTINUOUS
62
5
10
388.716176
20
941.609879
11
388.716176
21
948.109879
0
LINE
5
309
100
AcDbEntity
8
6
100
AcDbLine
6
CONTINUOUS
62
5
10
388.716182
20
941.609876
11
388.716182
21
948.109876
0
LINE
5
30a
100
AcDbEntity
8
6
100
AcDbLine
6
CONTINUOUS
62
5
10
388.716182
20
941.609876
11
388.716182
21
948.109876
0
LINE
5
30b
100
AcDbEntity
8
6
100
AcDbLine
6
CONTINUOUS
62
5
10
388.716179
20
941.609877
11
388.716179
21
948.109882
0
LINE
5
30c
100
AcDbEntity
8
6
100
AcDbLine
6
CONTINUOUS
62
5
10
388.716176
20
948.109876
11
388.716176
21
941.609818
0
LINE
5
30d
100
AcDbEntity
8
6
100
AcDbLine
6
CONTINUOUS
62
5
10
387.417693
20
948.109907
11
387.417693
21
941.809904
0
LINE
5
30e
100
AcDbEntity
8
6
100
AcDbLine
6
CONTINUOUS
62
5
10
384.167650
20
944.159874
11
384.167650
21
943.159874
0
LINE
5
30f
100
AcDbEntity
8
6
100
AcDbLine
6
CONTINUOUS
62
5
10
387.217687
20
944.357249
11
387.217698
21
943.159905
0
LINE
5
310
100
AcDbEntity
8
6
100
AcDbLine
6
CONTINUOUS
62
5
10
387.217693
20
944.393342
11
387.217693
21
943.159906
0
LINE
5
311
100
AcDbEntity
8
6
100
AcDbLine
6
CONTINUOUS
62
5
10
393.666176
20
941.609851
11
393.666176
21
948.109879
0
LINE
5
312
100
AcDbEntity
8
6
100
AcDbLine
6
CONTINUOUS
62
5
10
393.666179
20
941.609877
11
393.666179
21
948.109882
0
LINE
5
313
100
AcDbEntity
8
6
100
AcDbLine
6
CONTINUOUS
62
5
10
393.666182
20
941.609876
11
393.666182
21
948.109876
0
LINE
5
314
100
AcDbEntity
8
6
100
AcDbLine
6
CONTINUOUS
62
5
10
393.666182
20
941.609876
11
393.666182
21
948.109876
0
LINE
5
315
100
AcDbEntity
8
6
100
AcDbLine
6
CONTINUOUS
62
5
10
393.666176
20
941.609879
11
393.666176
21
948.109879
0
POLYLINE
5
316
100
AcDbEntity
8
1
6
CONTINUOUS
62
5
100
AcDb2dPolyline
66
1
10
0.0
20
0.0
30
0.0
70
0
0
VERTEX
5
317
100
AcDbEntity
8
1
100
AcDbVertex
100
AcDb2dVertex
62
5
10
357.016163
20
948.109876
0
VERTEX
5
318
100
AcDbEntity
8
1
100
AcDbVertex
100
AcDb2dVertex
62
5
10
357.016164
20
957.209876
0
VERTEX
5
319
100
AcDbEntity
8
1
100
AcDbVertex
100
AcDb2dVertex
62
5
10
356.816164
20
957.209876
0
VERTEX
5
31a
100
AcDbEntity
8
1
100
AcDbVertex
100
AcDb2dVertex
62
5
10
356.816163
20
948.109876
0
SEQEND
5
31b
100
AcDbEntity
8
1
0
POLYLINE
5
31c
100
AcDbEntity
8
1
6
CONTINUOUS
62
5
100
AcDb2dPolyline
66
1
10
0.0
20
0.0
30
0.0
70
0
0
VERTEX
5
31d
100
AcDbEntity
8
1
100
AcDbVertex
100
AcDb2dVertex
62
5
10
350.616164
20
948.109876
0
VERTEX
5
31e
100
AcDbEntity
8
1
100
AcDbVertex
100
AcDb2dVertex
62
5
10
350.616164
20
942.059876
0
VERTEX
5
31f
100
AcDbEntity
8
1
100
AcDbVertex
100
AcDb2dVertex
62
5
10
350.816164
20
941.859876
0
VERTEX
5
320
100
AcDbEntity
8
1
100
AcDbVertex
100
AcDb2dVertex
62
5
10
356.816160
20
941.859876
0
SEQEND
5
321
100
AcDbEntity
8
1
0
POLYLINE
5
322
100
AcDbEntity
8
1
6
CONTINUOUS
62
5
100
AcDb2dPolyline
66
1
10
0.0
20
0.0
30
0.0
70
0
0
VERTEX
5
323
100
AcDbEntity
8
1
100
AcDbVertex
100
AcDb2dVertex
62
5
10
356.816160
20
954.359876
0
VERTEX
5
324
100
AcDbEntity
8
1
100
AcDbVertex
100
AcDb2dVertex
62
5
10
350.816164
20
954.359876
0
VERTEX
5
325
100
AcDbEntity
8
1
100
AcDbVertex
100
AcDb2dVertex
62
5
10
350.616164
20
954.159876
0
VERTEX
5
326
100
AcDbEntity
8
1
100
AcDbVertex
100
AcDb2dVertex
62
5
10
350.616164
20
948.109876
0
SEQEND
5
327
100
AcDbEntity
8
1
0
POLYLINE
5
328
100
AcDbEntity
8
1
6
CONTINUOUS
62
5
100
AcDb2dPolyline
66
1
10
0.0
20
0.0
30
0.0
70
0
0
VERTEX
5
329
100
AcDbEntity
8
1
100
AcDbVertex
100
AcDb2dVertex
62
5
10
362.116164
20
957.441123
0
VERTEX
5
32a
100
AcDbEntity
8
1
100
AcDbVertex
100
AcDb2dVertex
62
5
10
362.116164
20
958.909876
0
VERTEX
5
32b
100
AcDbEntity
8
1
100
AcDbVertex
100
AcDb2dVertex
62
5
10
361.916164
20
959.109876
0
VERTEX
5
32c
100
AcDbEntity
8
1
100
AcDbVertex
100
AcDb2dVertex
62
5
10
359.016164
20
959.109876
0
VERTEX
5
32d
100
AcDbEntity
8
1
100
AcDbVertex
100
AcDb2dVertex
62
5
10
358.016164
20
958.109876
0
VERTEX
5
32e
100
AcDbEntity
8
1
100
AcDbVertex
100
AcDb2dVertex
62
5
10
358.016164
20
938.109876
0
VERTEX
5
32f
100
AcDbEntity
8
1
100
AcDbVertex
100
AcDb2dVertex
62
5
10
359.016164
20
937.109876
0
VERTEX
5
330
100
AcDbEntity
8
1
100
AcDbVertex
100
AcDb2dVertex
62
5
10
361.916164
20
937.109876
0
VERTEX
5
331
100
AcDbEntity
8
1
100
AcDbVertex
100
AcDb2dVertex
62
5
10
362.116164
20
937.309876
0
VERTEX
5
332
100
AcDbEntity
8
1
100
AcDbVertex
100
AcDb2dVertex
62
5
10
362.116164
20
938.778630
0
SEQEND
5
333
100
AcDbEntity
8
1
0
LINE
5
334
100
AcDbEntity
8
1
100
AcDbLine
6
CONTINUOUS
62
5
10
359.738860
20
956.229482
11
359.738860
21
939.931149
0
POLYLINE
5
335
100
AcDbEntity
8
1
6
CONTINUOUS
62
5
100
AcDb2dPolyline
66
1
10
0.0
20
0.0
30
0.0
70
0
0
VERTEX
5
336
100
AcDbEntity
8
1
100
AcDbVertex
100
AcDb2dVertex
62
5
10
357.016163
20
948.109876
0
VERTEX
5
337
100
AcDbEntity
8
1
100
AcDbVertex
100
AcDb2dVertex
62
5
10
357.016164
20
939.009876
0
VERTEX
5
338
100
AcDbEntity
8
1
100
AcDbVertex
100
AcDb2dVertex
62
5
10
356.816164
20
939.009876
0
VERTEX
5
339
100
AcDbEntity
8
1
100
AcDbVertex
100
AcDb2dVertex
62
5
10
356.816163
20
948.109876
0
SEQEND
5
33a
100
AcDbEntity
8
1
0
LINE
5
33b
100
AcDbEntity
8
1
100
AcDbLine
6
CONTINUOUS
62
5
10
358.016164
20
957.209876
11
376.359647
21
958.159876
0
LINE
5
33c
100
AcDbEntity
8
1
100
AcDbLine
6
DASHED
62
5
10
376.266164
20
957.754161
11
360.216164
21
956.859876
0
POLYLINE
5
33d
100
AcDbEntity
8
1
6
CONTINUOUS
62
5
100
AcDb2dPolyline
66
1
10
0.0
20
0.0
30
0.0
70
0
0
VERTEX
5
33e
100
AcDbEntity
8
1
100
AcDbVertex
100
AcDb2dVertex
62
5
10
363.916164
20
957.542646
0
VERTEX
5
33f
100
AcDbEntity
8
1
100
AcDbVertex
100
AcDb2dVertex
62
5
10
363.916164
20
958.909876
0
VERTEX
5
340
100
AcDbEntity
8
1
100
AcDbVertex
100
AcDb2dVertex
62
5
10
364.116164
20
959.109876
0
VERTEX
5
341
100
AcDbEntity
8
1
100
AcDbVertex
100
AcDb2dVertex
62
5
10
377.309647
20
959.109876
0
SEQEND
5
342
100
AcDbEntity
8
1
0
LINE
5
343
100
AcDbEntity
8
1
100
AcDbLine
6
DASHED
62
5
10
360.216164
20
939.359876
11
376.266164
21
938.465591
0
POLYLINE
5
344
100
AcDbEntity
8
1
6
CONTINUOUS
62
5
100
AcDb2dPolyline
66
1
10
0.0
20
0.0
30
0.0
70
0
0
VERTEX
5
345
100
AcDbEntity
8
1
100
AcDbVertex
100
AcDb2dVertex
62
5
10
363.916164
20
938.677107
0
VERTEX
5
346
100
AcDbEntity
8
1
100
AcDbVertex
100
AcDb2dVertex
62
5
10
363.916164
20
937.309876
0
VERTEX
5
347
100
AcDbEntity
8
1
100
AcDbVertex
100
AcDb2dVertex
62
5
10
364.116164
20
937.109876
0
VERTEX
5
348
100
AcDbEntity
8
1
100
AcDbVertex
100
AcDb2dVertex
62
5
10
394.510423
20
937.109876
0
SEQEND
5
349
100
AcDbEntity
8
1
0
ARC
5
34a
100
AcDbEntity
8
1
100
AcDbCircle
6
CONTINUOUS
62
5
10
375.016164
20
948.109876
40
0.600000
100
AcDbArc
50
89.999999
51
-89.999999
0
POLYLINE
5
34b
100
AcDbEntity
8
1
6
CONTINUOUS
62
5
100
AcDb2dPolyline
66
1
10
0.0
20
0.0
30
0.0
70
0
0
VERTEX
5
34c
100
AcDbEntity
8
1
100
AcDbVertex
100
AcDb2dVertex
62
5
10
375.016164
20
947.509876
0
VERTEX
5
34d
100
AcDbEntity
8
1
100
AcDbVertex
100
AcDb2dVertex
62
5
10
375.016164
20
938.859876
0
VERTEX
5
34e
100
AcDbEntity
8
1
100
AcDbVertex
100
AcDb2dVertex
62
5
10
376.266164
20
938.859876
0
VERTEX
5
34f
100
AcDbEntity
8
1
100
AcDbVertex
100
AcDb2dVertex
62
5
10
376.266164
20
938.365457
0
SEQEND
5
350
100
AcDbEntity
8
1
0
POLYLINE
5
351
100
AcDbEntity
8
1
6
CONTINUOUS
62
5
100
AcDb2dPolyline
66
1
10
0.0
20
0.0
30
0.0
70
0
0
VERTEX
5
352
100
AcDbEntity
8
1
100
AcDbVertex
100
AcDb2dVertex
62
5
10
376.266164
20
938.365457
0
VERTEX
5
353
100
AcDbEntity
8
1
100
AcDbVertex
100
AcDb2dVertex
62
5
10
360.216164
20
939.259748
0
VERTEX
5
354
100
AcDbEntity
8
1
100
AcDbVertex
100
AcDb2dVertex
62
5
10
360.216164
20
939.509876
0
VERTEX
5
355
100
AcDbEntity
8
1
100
AcDbVertex
100
AcDb2dVertex
62
5
10
358.416164
20
939.509876
0
VERTEX
5
356
100
AcDbEntity
8
1
100
AcDbVertex
100
AcDb2dVertex
62
5
10
358.116164
20
939.809876
0
VERTEX
5
357
100
AcDbEntity
8
1
100
AcDbVertex
100
AcDb2dVertex
62
5
10
358.116164
20
956.409876
0
VERTEX
5
358
100
AcDbEntity
8
1
100
AcDbVertex
100
AcDb2dVertex
62
5
10
358.416164
20
956.709876
0
VERTEX
5
359
100
AcDbEntity
8
1
100
AcDbVertex
100
AcDb2dVertex
62
5
10
360.216164
20
956.709876
0
VERTEX
5
35a
100
AcDbEntity
8
1
100
AcDbVertex
100
AcDb2dVertex
62
5
10
360.216164
20
956.960010
0
VERTEX
5
35b
100
AcDbEntity
8
1
100
AcDbVertex
100
AcDb2dVertex
62
5
10
376.266164
20
957.854295
0
SEQEND
5
35c
100
AcDbEntity
8
1
0
POLYLINE
5
35d
100
AcDbEntity
8
1
6
CONTINUOUS
62
5
100
AcDb2dPolyline
66
1
10
0.0
20
0.0
30
0.0
70
0
0
VERTEX
5
35e
100
AcDbEntity
8
1
100
AcDbVertex
100
AcDb2dVertex
62
5
10
376.266164
20
957.754161
0
VERTEX
5
35f
100
AcDbEntity
8
1
100
AcDbVertex
100
AcDb2dVertex
62
5
10
376.266164
20
957.359876
0
VERTEX
5
360
100
AcDbEntity
8
1
100
AcDbVertex
100
AcDb2dVertex
62
5
10
375.016164
20
957.359876
0
VERTEX
5
361
100
AcDbEntity
8
1
100
AcDbVertex
100
AcDb2dVertex
62
5
10
375.016164
20
948.709876
0
SEQEND
5
362
100
AcDbEntity
8
1
0
POLYLINE
5
363
100
AcDbEntity
8
1
6
CONTINUOUS
62
5
100
AcDb2dPolyline
66
1
10
0.0
20
0.0
30
0.0
70
0
0
VERTEX
5
364
100
AcDbEntity
8
1
100
AcDbVertex
100
AcDb2dVertex
62
5
10
376.266164
20
938.064718
0
VERTEX
5
365
100
AcDbEntity
8
1
100
AcDbVertex
100
AcDb2dVertex
62
5
10
358.016164
20
939.009876
0
VERTEX
5
366
100
AcDbEntity
8
1
100
AcDbVertex
100
AcDb2dVertex
62
5
10
357.016164
20
939.009876
0
VERTEX
5
367
100
AcDbEntity
8
1
100
AcDbVertex
100
AcDb2dVertex
62
5
10
357.016164
20
957.209876
0
VERTEX
5
368
100
AcDbEntity
8
1
100
AcDbVertex
100
AcDb2dVertex
62
5
10
358.016164
20
957.209876
0
VERTEX
5
369
100
AcDbEntity
8
1
100
AcDbVertex
100
AcDb2dVertex
62
5
10
376.266164
20
958.155035
0
SEQEND
5
36a
100
AcDbEntity
8
1
0
LINE
5
36b
100
AcDbEntity
8
1
100
AcDbLine
6
CONTINUOUS
62
5
10
373.316164
20
957.234899
11
373.316164
21
939.269691
0
LINE
5
36c
100
AcDbEntity
8
6
100
AcDbLine
6
CONTINUOUS
62
5
10
386.217651
20
901.668564
11
386.217651
21
906.618564
0
LINE
5
36d
100
AcDbEntity
8
6
100
AcDbLine
6
CONTINUOUS
62
5
10
387.217664
20
901.668586
11
387.217992
21
906.618580
0
LINE
5
36e
100
AcDbEntity
8
6
100
AcDbLine
6
CONTINUOUS
62
5
10
388.716188
20
897.468556
11
393.666176
21
897.468556
0
LINE
5
36f
100
AcDbEntity
8
6
100
AcDbLine
6
CONTINUOUS
62
5
10
388.716191
20
897.968558
11
393.666179
21
897.968558
0
ARC
5
370
100
AcDbEntity
8
1
100
AcDbCircle
6
CONTINUOUS
62
5
10
391.766181
20
900.518556
40
0.200000
100
AcDbArc
50
-89.999999
51
0.000000
0
LINE
5
371
100
AcDbEntity
8
1
100
AcDbLine
6
CONTINUOUS
62
5
10
391.966181
20
900.518556
11
391.966181
21
902.818556
0
ARC
5
372
100
AcDbEntity
8
1
100
AcDbCircle
6
CONTINUOUS
62
5
10
391.766181
20
902.818556
40
0.200000
100
AcDbArc
50
0.000000
51
89.999999
0
LINE
5
373
100
AcDbEntity
8
1
100
AcDbLine
6
CONTINUOUS
62
5
10
391.766181
20
903.018556
11
389.466181
21
903.018556
0
ARC
5
374
100
AcDbEntity
8
1
100
AcDbCircle
6
CONTINUOUS
62
5
10
389.466181
20
902.818556
40
0.200000
100
AcDbArc
50
89.999999
51
179.999998
0
LINE
5
375
100
AcDbEntity
8
1
100
AcDbLine
6
CONTINUOUS
62
5
10
389.266181
20
902.818556
11
389.266181
21
900.518556
0
ARC
5
376
100
AcDbEntity
8
1
100
AcDbCircle
6
CONTINUOUS
62
5
10
389.466181
20
900.518556
40
0.200000
100
AcDbArc
50
179.999998
51
-89.999999
0
LINE
5
377
100
AcDbEntity
8
1
100
AcDbLine
6
CONTINUOUS
62
5
10
389.466181
20
900.318556
11
391.766181
21
900.318556
0
CIRCLE
5
378
100
AcDbEntity
8
1
100
AcDbCircle
6
CONTINUOUS
62
5
10
390.616181
20
901.668556
40
0.800000
0
ARC
5
379
100
AcDbEntity
8
1
100
AcDbCircle
6
CONTINUOUS
62
5
10
390.616181
20
901.668556
40
0.650000
100
AcDbArc
50
-179.999998
51
-0.000000
0
LINE
5
37a
100
AcDbEntity
8
1
100
AcDbLine
6
CONTINUOUS
62
5
10
391.266181
20
901.668556
11
391.266181
21
901.668556
0
ARC
5
37b
100
AcDbEntity
8
1
100
AcDbCircle
6
CONTINUOUS
62
5
10
390.616181
20
901.668556
40
0.650000
100
AcDbArc
50
0.000000
51
179.999998
0
LINE
5
37c
100
AcDbEntity
8
1
100
AcDbLine
6
CONTINUOUS
62
5
10
389.966181
20
901.668556
11
389.966181
21
901.668556
0
LINE
5
37d
100
AcDbEntity
8
6
100
AcDbLine
6
CONTINUOUS
62
5
10
387.217651
20
901.668586
11
387.217698
21
896.718586
0
LINE
5
37e
100
AcDbEntity
8
6
100
AcDbLine
6
CONTINUOUS
62
5
10
386.217651
20
901.668564
11
386.217651
21
896.718564
0
LINE
5
37f
100
AcDbEntity
8
6
100
AcDbLine
6
CONTINUOUS
62
5
10
387.217693
20
897.952021
11
387.217693
21
896.718586
0
LINE
5
380
100
AcDbEntity
8
6
100
AcDbLine
6
CONTINUOUS
62
5
10
387.217687
20
897.915928
11
387.217698
21
896.718585
0
LINE
5
381
100
AcDbEntity
8
6
100
AcDbLine
6
CONTINUOUS
62
5
10
388.717684
20
897.468586
11
387.417752
21
897.468586
0
LINE
5
382
100
AcDbEntity
8
6
100
AcDbLine
6
CONTINUOUS
62
5
10
387.317693
20
896.718586
11
387.217698
21
896.718586
0
ARC
5
383
100
AcDbEntity
8
6
100
AcDbCircle
6
CONTINUOUS
62
5
10
387.317693
20
896.618586
40
0.100000
100
AcDbArc
50
-0.000001
51
89.999999
0
LINE
5
384
100
AcDbEntity
8
6
100
AcDbLine
6
CONTINUOUS
62
5
10
386.217651
20
896.718547
11
387.217651
21
896.718547
0
LINE
5
385
100
AcDbEntity
8
6
100
AcDbLine
6
CONTINUOUS
62
5
10
387.417693
20
897.968558
11
388.716173
21
897.968558
0
LINE
5
386
100
AcDbEntity
8
6
100
AcDbLine
6
CONTINUOUS
62
5
10
388.716188
20
905.368554
11
393.666181
21
905.368554
0
LINE
5
387
100
AcDbEntity
8
6
100
AcDbLine
6
CONTINUOUS
62
5
10
388.716188
20
905.868556
11
393.666181
21
905.868556
0
LINE
5
388
100
AcDbEntity
8
6
100
AcDbLine
6
CONTINUOUS
62
5
10
387.417797
20
905.368554
11
388.717684
21
905.368554
0
LINE
5
389
100
AcDbEntity
8
6
100
AcDbLine
6
CONTINUOUS
62
5
10
388.717684
20
905.868586
11
387.417752
21
905.868586
0
ARC
5
38a
100
AcDbEntity
8
6
100
AcDbCircle
6
CONTINUOUS
62
5
10
387.317696
20
906.718572
40
0.100000
100
AcDbArc
50
-90.004613
51
-0.004613
0
LINE
5
38b
100
AcDbEntity
8
6
100
AcDbLine
6
CONTINUOUS
62
5
10
387.317688
20
906.618572
11
387.217693
21
906.618580
0
LINE
5
38c
100
AcDbEntity
8
6
100
AcDbLine
6
CONTINUOUS
62
5
10
386.217651
20
906.618564
11
387.217651
21
906.618564
0
LINE
5
38d
100
AcDbEntity
8
6
100
AcDbLine
6
CONTINUOUS
62
5
10
388.716176
20
901.668556
11
388.716176
21
908.168614
0
LINE
5
38e
100
AcDbEntity
8
6
100
AcDbLine
6
CONTINUOUS
62
5
10
388.716176
20
901.668553
11
388.716176
21
908.168555
0
LINE
5
38f
100
AcDbEntity
8
6
100
AcDbLine
6
CONTINUOUS
62
5
10
388.716182
20
901.668556
11
388.716182
21
908.168556
0
LINE
5
390
100
AcDbEntity
8
6
100
AcDbLine
6
CONTINUOUS
62
5
10
388.716182
20
908.168553
11
388.716179
21
901.668553
0
LINE
5
391
100
AcDbEntity
8
6
100
AcDbLine
6
CONTINUOUS
62
5
10
387.417617
20
907.968592
11
387.418023
21
901.668647
0
LINE
5
392
100
AcDbEntity
8
6
100
AcDbLine
6
CONTINUOUS
62
5
10
393.666182
20
908.168553
11
393.666179
21
901.668553
0
LINE
5
393
100
AcDbEntity
8
6
100
AcDbLine
6
CONTINUOUS
62
5
10
393.666182
20
901.668556
11
393.666182
21
908.168556
0
LINE
5
394
100
AcDbEntity
8
6
100
AcDbLine
6
CONTINUOUS
62
5
10
393.666176
20
901.668553
11
393.666176
21
908.168555
0
LINE
5
395
100
AcDbEntity
8
6
100
AcDbLine
6
CONTINUOUS
62
5
10
393.666182
20
908.168577
11
393.666179
21
901.668551
0
LINE
5
396
100
AcDbEntity
8
6
100
AcDbLine
6
CONTINUOUS
62
5
10
388.716195
20
907.668556
11
393.666187
21
907.668556
0
LINE
5
397
100
AcDbEntity
8
6
100
AcDbLine
6
CONTINUOUS
62
5
10
393.666182
20
908.168577
11
388.716182
21
908.168577
0
LINE
5
398
100
AcDbEntity
8
6
100
AcDbLine
6
CONTINUOUS
62
5
10
388.716176
20
907.668556
11
387.417636
21
907.668556
0
LINE
5
399
100
AcDbEntity
8
6
100
AcDbLine
6
CONTINUOUS
62
5
10
388.717684
20
908.168602
11
387.617419
21
908.168605
0
ARC
5
39a
100
AcDbEntity
8
6
100
AcDbCircle
6
CONTINUOUS
62
5
10
387.617617
20
907.968605
40
0.200000
100
AcDbArc
50
89.999887
51
-179.996298
0
LINE
5
39b
100
AcDbEntity
8
6
100
AcDbLine
6
CONTINUOUS
62
5
10
393.766176
20
908.168577
11
393.666182
21
908.168577
0
LINE
5
39c
100
AcDbEntity
8
6
100
AcDbLine
6
CONTINUOUS
62
5
10
381.116181
20
901.668553
11
381.116180
21
905.318553
0
LINE
5
39d
100
AcDbEntity
8
6
100
AcDbLine
6
CONTINUOUS
62
5
10
384.167650
20
903.568556
11
384.167650
21
906.618606
0
ARC
5
39e
100
AcDbEntity
8
1
100
AcDbCircle
6
CONTINUOUS
62
5
10
381.416181
20
900.068556
40
0.300000
100
AcDbArc
50
179.999998
51
-89.999999
0
LINE
5
39f
100
AcDbEntity
8
1
100
AcDbLine
6
CONTINUOUS
62
5
10
381.416181
20
899.768556
11
384.616181
21
899.768556
0
ARC
5
3a0
100
AcDbEntity
8
1
100
AcDbCircle
6
CONTINUOUS
62
5
10
384.616181
20
900.068556
40
0.300000
100
AcDbArc
50
-89.999999
51
0.000000
0
LINE
5
3a1
100
AcDbEntity
8
1
100
AcDbLine
6
CONTINUOUS
62
5
10
384.916181
20
900.068556
11
384.916181
21
903.268556
0
ARC
5
3a2
100
AcDbEntity
8
1
100
AcDbCircle
6
CONTINUOUS
62
5
10
384.616181
20
903.268556
40
0.300000
100
AcDbArc
50
0.000000
51
89.999999
0
LINE
5
3a3
100
AcDbEntity
8
1
100
AcDbLine
6
CONTINUOUS
62
5
10
384.616181
20
903.568556
11
381.416181
21
903.568556
0
ARC
5
3a4
100
AcDbEntity
8
1
100
AcDbCircle
6
CONTINUOUS
62
5
10
381.416181
20
903.268556
40
0.300000
100
AcDbArc
50
89.999999
51
179.999998
0
LINE
5
3a5
100
AcDbEntity
8
1
100
AcDbLine
6
CONTINUOUS
62
5
10
381.116181
20
903.268556
11
381.116181
21
900.068556
0
CIRCLE
5
3a6
100
AcDbEntity
8
1
100
AcDbCircle
6
CONTINUOUS
62
5
10
383.016181
20
901.668556
40
1.600000
0
LINE
5
3a7
100
AcDbEntity
8
6
100
AcDbLine
6
CONTINUOUS
62
5
10
381.116181
20
901.668553
11
381.116180
21
898.012921
0
LINE
5
3a8
100
AcDbEntity
8
6
100
AcDbLine
6
CONTINUOUS
62
5
10
384.167650
20
897.718553
11
384.167650
21
899.768556
0
LINE
5
3a9
100
AcDbEntity
8
6
100
AcDbLine
6
CONTINUOUS
62
5
10
381.316180
20
897.818553
11
384.067650
21
897.818553
0
ARC
5
3aa
100
AcDbEntity
8
6
100
AcDbCircle
6
CONTINUOUS
62
5
10
381.316180
20
898.018553
40
0.200000
100
AcDbArc
50
179.999995
51
-89.999999
0
ARC
5
3ab
100
AcDbEntity
8
6
100
AcDbCircle
6
CONTINUOUS
62
5
10
384.067650
20
897.718575
40
0.100000
100
AcDbArc
50
0.000000
51
89.999999
0
LINE
5
3ac
100
AcDbEntity
8
6
100
AcDbLine
6
CONTINUOUS
62
5
10
384.167650
20
897.718553
11
384.167650
21
896.718553
0
LINE
5
3ad
100
AcDbEntity
8
6
100
AcDbLine
6
CONTINUOUS
62
5
10
385.067650
20
896.718553
11
384.167650
21
896.718553
0
ARC
5
3ae
100
AcDbEntity
8
1
100
AcDbCircle
6
CONTINUOUS
62
5
10
383.016181
20
901.668556
40
1.350000
100
AcDbArc
50
179.999998
51
0.000000
0
LINE
5
3af
100
AcDbEntity
8
1
100
AcDbLine
6
CONTINUOUS
62
5
10
384.366181
20
901.668556
11
384.366181
21
901.668556
0
ARC
5
3b0
100
AcDbEntity
8
1
100
AcDbCircle
6
CONTINUOUS
62
5
10
383.016181
20
901.668556
40
1.350000
100
AcDbArc
50
-0.000000
51
-179.999998
0
LINE
5
3b1
100
AcDbEntity
8
1
100
AcDbLine
6
CONTINUOUS
62
5
10
381.666181
20
901.668556
11
381.666181
21
901.668556
0
LINE
5
3b2
100
AcDbEntity
8
6
100
AcDbLine
6
CONTINUOUS
62
5
10
381.316180
20
905.518553
11
384.067650
21
905.518553
0
ARC
5
3b3
100
AcDbEntity
8
6
100
AcDbCircle
6
CONTINUOUS
62
5
10
381.316180
20
905.318553
40
0.200000
100
AcDbArc
50
89.999999
51
-179.999995
0
ARC
5
3b4
100
AcDbEntity
8
6
100
AcDbCircle
6
CONTINUOUS
62
5
10
384.067650
20
905.618553
40
0.100000
100
AcDbArc
50
-89.999999
51
0.000000
0
LINE
5
3b5
100
AcDbEntity
8
6
100
AcDbLine
6
CONTINUOUS
62
5
10
385.467650
20
906.618560
11
385.467651
21
901.668564
0
LINE
5
3b6
100
AcDbEntity
8
6
100
AcDbLine
6
CONTINUOUS
62
5
10
385.467650
20
896.718569
11
385.467651
21
901.668564
0
LINE
5
3b7
100
AcDbEntity
8
6
100
AcDbLine
6
CONTINUOUS
62
5
10
386.217651
20
896.718547
11
385.467650
21
896.718547
0
LINE
5
3b8
100
AcDbEntity
8
6
100
AcDbLine
6
CONTINUOUS
62
5
10
385.067650
20
896.718553
11
385.467650
21
896.718568
0
LINE
5
3b9
100
AcDbEntity
8
6
100
AcDbLine
6
CONTINUOUS
62
5
10
386.217651
20
906.618564
11
385.467650
21
906.618564
0
LINE
5
3ba
100
AcDbEntity
8
6
100
AcDbLine
6
CONTINUOUS
62
5
10
384.167650
20
906.618606
11
385.467650
21
906.618560
0
LINE
5
3bb
100
AcDbEntity
8
6
100
AcDbLine
6
CONTINUOUS
62
5
10
393.666176
20
895.168531
11
388.716182
21
895.168531
0
LINE
5
3bc
100
AcDbEntity
8
6
100
AcDbLine
6
CONTINUOUS
62
5
10
388.717717
20
895.168586
11
387.617693
21
895.168584
0
ARC
5
3bd
100
AcDbEntity
8
6
100
AcDbCircle
6
CONTINUOUS
62
5
10
387.617693
20
895.368584
40
0.200000
100
AcDbArc
50
179.999997
51
-89.999886
0
POLYLINE
5
3be
100
AcDbEntity
8
1
6
CONTINUOUS
62
5
100
AcDb2dPolyline
66
1
10
0.0
20
0.0
30
0.0
70
0
0
VERTEX
5
3bf
100
AcDbEntity
8
1
100
AcDbVertex
100
AcDb2dVertex
62
5
10
375.016164
20
889.128556
0
VERTEX
5
3c0
100
AcDbEntity
8
1
100
AcDbVertex
100
AcDb2dVertex
62
5
10
376.259647
20
889.128556
0
VERTEX
5
3c1
100
AcDbEntity
8
1
100
AcDbVertex
100
AcDb2dVertex
62
5
10
376.259647
20
889.028556
0
SEQEND
5
3c2
100
AcDbEntity
8
1
0
LINE
5
3c3
100
AcDbEntity
8
1
100
AcDbLine
6
HIDDEN
62
5
10
376.259647
20
887.128556
11
376.259647
21
888.628556
0
LINE
5
3c4
100
AcDbEntity
8
1
100
AcDbLine
6
CONTINUOUS
62
5
10
377.309647
20
879.028556
11
377.309647
21
878.028556
0
ARC
5
3c5
100
AcDbEntity
8
1
100
AcDbCircle
6
CONTINUOUS
62
5
10
379.749580
20
875.366284
40
3.611227
100
AcDbArc
50
132.504792
51
159.837751
0
LINE
5
3c6
100
AcDbEntity
8
6
100
AcDbLine
6
CONTINUOUS
62
5
10
388.716191
20
895.668556
11
393.666179
21
895.668556
0
LINE
5
3c7
100
AcDbEntity
8
6
100
AcDbLine
6
CONTINUOUS
62
5
10
387.417693
20
901.668586
11
387.417693
21
895.368584
0
LINE
5
3c8
100
AcDbEntity
8
6
100
AcDbLine
6
CONTINUOUS
62
5
10
388.716176
20
901.668556
11
388.716176
21
895.168497
0
LINE
5
3c9
100
AcDbEntity
8
6
100
AcDbLine
6
CONTINUOUS
62
5
10
388.716179
20
895.168556
11
388.716179
21
901.668562
0
LINE
5
3ca
100
AcDbEntity
8
6
100
AcDbLine
6
CONTINUOUS
62
5
10
388.716182
20
895.168556
11
388.716182
21
901.668556
0
LINE
5
3cb
100
AcDbEntity
8
6
100
AcDbLine
6
CONTINUOUS
62
5
10
388.716182
20
895.168556
11
388.716182
21
901.668556
0
LINE
5
3cc
100
AcDbEntity
8
6
100
AcDbLine
6
CONTINUOUS
62
5
10
388.716176
20
895.168559
11
388.716176
21
901.668559
0
LINE
5
3cd
100
AcDbEntity
8
6
100
AcDbLine
6
CONTINUOUS
62
5
10
388.717687
20
895.668556
11
387.417652
21
895.668556
0
LINE
5
3ce
100
AcDbEntity
8
6
100
AcDbLine
6
CONTINUOUS
62
5
10
393.666176
20
895.168559
11
393.666176
21
901.668559
0
LINE
5
3cf
100
AcDbEntity
8
6
100
AcDbLine
6
CONTINUOUS
62
5
10
393.666182
20
895.168556
11
393.666182
21
901.668556
0
LINE
5
3d0
100
AcDbEntity
8
6
100
AcDbLine
6
CONTINUOUS
62
5
10
393.666182
20
895.168556
11
393.666182
21
901.668556
0
LINE
5
3d1
100
AcDbEntity
8
6
100
AcDbLine
6
CONTINUOUS
62
5
10
393.666179
20
895.168556
11
393.666179
21
901.668562
0
LINE
5
3d2
100
AcDbEntity
8
6
100
AcDbLine
6
CONTINUOUS
62
5
10
393.666176
20
895.168531
11
393.666176
21
901.668559
0
LINE
5
3d3
100
AcDbEntity
8
1
100
AcDbLine
6
CONTINUOUS
62
5
10
360.216164
20
887.128556
11
360.216164
21
887.198409
0
LINE
5
3d4
100
AcDbEntity
8
1
100
AcDbLine
6
CONTINUOUS
62
5
10
356.340912
20
878.453495
11
356.340912
21
877.603495
0
POLYLINE
5
3d5
100
AcDbEntity
8
1
6
CONTINUOUS
62
5
100
AcDb2dPolyline
66
1
10
0.0
20
0.0
30
0.0
70
1
0
VERTEX
5
3d6
100
AcDbEntity
8
1
100
AcDbVertex
100
AcDb2dVertex
62
5
10
356.816163
20
878.453495
0
VERTEX
5
3d7
100
AcDbEntity
8
1
100
AcDbVertex
100
AcDb2dVertex
62
5
10
356.340912
20
878.453495
0
VERTEX
5
3d8
100
AcDbEntity
8
1
100
AcDbVertex
100
AcDb2dVertex
62
5
10
356.316163
20
878.428746
0
VERTEX
5
3d9
100
AcDbEntity
8
1
100
AcDbVertex
100
AcDb2dVertex
62
5
10
356.316163
20
877.628243
0
VERTEX
5
3da
100
AcDbEntity
8
1
100
AcDbVertex
100
AcDb2dVertex
62
5
10
356.340912
20
877.603495
0
VERTEX
5
3db
100
AcDbEntity
8
1
100
AcDbVertex
100
AcDb2dVertex
62
5
10
356.816163
20
877.603495
0
VERTEX
5
3dc
100
AcDbEntity
8
1
100
AcDbVertex
100
AcDb2dVertex
62
5
10
356.816163
20
878.453495
0
SEQEND
5
3dd
100
AcDbEntity
8
1
0
LINE
5
3de
100
AcDbEntity
8
1
100
AcDbLine
6
CONTINUOUS
62
5
10
356.340912
20
884.948746
11
356.340912
21
884.098746
0
POLYLINE
5
3df
100
AcDbEntity
8
1
6
CONTINUOUS
62
5
100
AcDb2dPolyline
66
1
10
0.0
20
0.0
30
0.0
70
1
0
VERTEX
5
3e0
100
AcDbEntity
8
1
100
AcDbVertex
100
AcDb2dVertex
62
5
10
356.816164
20
884.948746
0
VERTEX
5
3e1
100
AcDbEntity
8
1
100
AcDbVertex
100
AcDb2dVertex
62
5
10
356.340912
20
884.948746
0
VERTEX
5
3e2
100
AcDbEntity
8
1
100
AcDbVertex
100
AcDb2dVertex
62
5
10
356.316164
20
884.923997
0
VERTEX
5
3e3
100
AcDbEntity
8
1
100
AcDbVertex
100
AcDb2dVertex
62
5
10
356.316164
20
884.123495
0
VERTEX
5
3e4
100
AcDbEntity
8
1
100
AcDbVertex
100
AcDb2dVertex
62
5
10
356.340912
20
884.098746
0
VERTEX
5
3e5
100
AcDbEntity
8
1
100
AcDbVertex
100
AcDb2dVertex
62
5
10
356.816164
20
884.098746
0
VERTEX
5
3e6
100
AcDbEntity
8
1
100
AcDbVertex
100
AcDb2dVertex
62
5
10
356.816164
20
884.948746
0
SEQEND
5
3e7
100
AcDbEntity
8
1
0
POLYLINE
5
3e8
100
AcDbEntity
8
1
6
CONTINUOUS
62
5
100
AcDb2dPolyline
66
1
10
0.0
20
0.0
30
0.0
70
0
0
VERTEX
5
3e9
100
AcDbEntity
8
1
100
AcDbVertex
100
AcDb2dVertex
62
5
10
357.016163
20
878.028556
0
VERTEX
5
3ea
100
AcDbEntity
8
1
100
AcDbVertex
100
AcDb2dVertex
62
5
10
357.016164
20
887.128556
0
VERTEX
5
3eb
100
AcDbEntity
8
1
100
AcDbVertex
100
AcDb2dVertex
62
5
10
356.816164
20
887.128556
0
VERTEX
5
3ec
100
AcDbEntity
8
1
100
AcDbVertex
100
AcDb2dVertex
62
5
10
356.816163
20
878.028556
0
SEQEND
5
3ed
100
AcDbEntity
8
1
0
CIRCLE
5
3ee
100
AcDbEntity
8
1
100
AcDbCircle
6
CONTINUOUS
62
5
10
361.566164
20
878.028556
40
0.400000
0
POLYLINE
5
3ef
100
AcDbEntity
8
1
6
CONTINUOUS
62
5
100
AcDb2dPolyline
66
1
10
0.0
20
0.0
30
0.0
70
1
0
VERTEX
5
3f0
100
AcDbEntity
8
1
100
AcDbVertex
100
AcDb2dVertex
62
5
10
361.566164
20
878.490436
0
VERTEX
5
3f1
100
AcDbEntity
8
1
100
AcDbVertex
100
AcDb2dVertex
62
5
10
361.966164
20
878.259496
0
VERTEX
5
3f2
100
AcDbEntity
8
1
100
AcDbVertex
100
AcDb2dVertex
62
5
10
361.966164
20
877.797616
0
VERTEX
5
3f3
100
AcDbEntity
8
1
100
AcDbVertex
100
AcDb2dVertex
62
5
10
361.566164
20
877.566675
0
VERTEX
5
3f4
100
AcDbEntity
8
1
100
AcDbVertex
100
AcDb2dVertex
62
5
10
361.166164
20
877.797616
0
VERTEX
5
3f5
100
AcDbEntity
8
1
100
AcDbVertex
100
AcDb2dVertex
62
5
10
361.166164
20
878.259496
0
VERTEX
5
3f6
100
AcDbEntity
8
1
100
AcDbVertex
100
AcDb2dVertex
62
5
10
361.566164
20
878.490436
0
SEQEND
5
3f7
100
AcDbEntity
8
1
0
CIRCLE
5
3f8
100
AcDbEntity
8
1
100
AcDbCircle
6
CONTINUOUS
62
5
10
361.566164
20
878.028556
40
0.600000
0
CIRCLE
5
3f9
100
AcDbEntity
8
1
100
AcDbCircle
6
CONTINUOUS
62
5
10
361.566164
20
878.028556
40
0.339378
0
CIRCLE
5
3fa
100
AcDbEntity
8
1
100
AcDbCircle
6
CONTINUOUS
62
5
10
361.566164
20
878.028556
40
0.050000
0
ARC
5
3fb
100
AcDbEntity
8
1
100
AcDbCircle
6
CONTINUOUS
62
5
10
375.359647
20
876.611001
40
1.000000
100
AcDbArc
50
-82.853257
51
0.000000
0
LINE
5
3fc
100
AcDbEntity
8
1
100
AcDbLine
6
CONTINUOUS
62
5
10
376.359647
20
876.611001
11
376.359647
21
879.132502
0
LINE
5
3fd
100
AcDbEntity
8
1
100
AcDbLine
6
CONTINUOUS
62
5
10
358.016164
20
873.428556
11
375.484058
21
875.618770
0
CIRCLE
5
3fe
100
AcDbEntity
8
1
100
AcDbCircle
6
CONTINUOUS
62
5
10
373.566164
20
878.028556
40
0.600000
0
CIRCLE
5
3ff
100
AcDbEntity
8
1
100
AcDbCircle
6
CONTINUOUS
62
5
10
373.566164
20
878.028556
40
0.525000
0
LINE
5
400
100
AcDbEntity
8
1
100
AcDbLine
6
CONTINUOUS
62
5
10
373.785367
20
878.247759
11
373.346961
21
877.809353
0
LINE
5
401
100
AcDbEntity
8
1
100
AcDbLine
6
CONTINUOUS
62
5
10
373.785367
20
877.809353
11
373.346961
21
878.247759
0
LINE
5
402
100
AcDbEntity
8
1
100
AcDbLine
6
CONTINUOUS
62
5
10
359.716164
20
887.128556
11
359.738860
21
887.128556
0
POLYLINE
5
403
100
AcDbEntity
8
1
6
CONTINUOUS
62
5
100
AcDb2dPolyline
66
1
10
0.0
20
0.0
30
0.0
70
0
0
VERTEX
5
404
100
AcDbEntity
8
1
100
AcDbVertex
100
AcDb2dVertex
62
5
10
360.216164
20
887.128556
0
VERTEX
5
405
100
AcDbEntity
8
1
100
AcDbVertex
100
AcDb2dVertex
62
5
10
376.359647
20
887.128556
0
VERTEX
5
406
100
AcDbEntity
8
1
100
AcDbVertex
100
AcDb2dVertex
62
5
10
376.359647
20
888.628556
0
VERTEX
5
407
100
AcDbEntity
8
1
100
AcDbVertex
100
AcDb2dVertex
62
5
10
376.259647
20
888.628556
0
VERTEX
5
408
100
AcDbEntity
8
1
100
AcDbVertex
100
AcDb2dVertex
62
5
10
376.259647
20
889.028556
0
VERTEX
5
409
100
AcDbEntity
8
1
100
AcDbVertex
100
AcDb2dVertex
62
5
10
375.016164
20
889.028556
0
SEQEND
5
40a
100
AcDbEntity
8
1
0
POLYLINE
5
40b
100
AcDbEntity
8
1
6
DASHED
62
5
100
AcDb2dPolyline
66
1
10
0.0
20
0.0
30
0.0
70
0
0
VERTEX
5
40c
100
AcDbEntity
8
1
100
AcDbVertex
100
AcDb2dVertex
62
5
10
360.216164
20
887.198409
0
VERTEX
5
40d
100
AcDbEntity
8
1
100
AcDbVertex
100
AcDb2dVertex
62
5
10
373.316164
20
889.028556
0
VERTEX
5
40e
100
AcDbEntity
8
1
100
AcDbVertex
100
AcDb2dVertex
62
5
10
375.016164
20
889.028556
0
SEQEND
5
40f
100
AcDbEntity
8
1
0
POLYLINE
5
410
100
AcDbEntity
8
1
6
CONTINUOUS
62
5
100
AcDb2dPolyline
66
1
10
0.0
20
0.0
30
0.0
70
0
0
VERTEX
5
411
100
AcDbEntity
8
1
100
AcDbVertex
100
AcDb2dVertex
62
5
10
375.016164
20
889.028556
0
VERTEX
5
412
100
AcDbEntity
8
1
100
AcDbVertex
100
AcDb2dVertex
62
5
10
375.016164
20
889.128556
0
VERTEX
5
413
100
AcDbEntity
8
1
100
AcDbVertex
100
AcDb2dVertex
62
5
10
373.308850
20
889.128556
0
VERTEX
5
414
100
AcDbEntity
8
1
100
AcDbVertex
100
AcDb2dVertex
62
5
10
359.708850
20
887.228556
0
VERTEX
5
415
100
AcDbEntity
8
1
100
AcDbVertex
100
AcDb2dVertex
62
5
10
358.116164
20
887.228556
0
VERTEX
5
416
100
AcDbEntity
8
1
100
AcDbVertex
100
AcDb2dVertex
62
5
10
358.116164
20
887.128556
0
VERTEX
5
417
100
AcDbEntity
8
1
100
AcDbVertex
100
AcDb2dVertex
62
5
10
359.716164
20
887.128556
0
VERTEX
5
418
100
AcDbEntity
8
1
100
AcDbVertex
100
AcDb2dVertex
62
5
10
360.216164
20
887.198409
0
SEQEND
5
419
100
AcDbEntity
8
1
0
LINE
5
41a
100
AcDbEntity
8
1
100
AcDbLine
6
DOT2
62
5
10
421.404784
20
901.668556
11
377.136784
21
901.668556
0
ARC
5
41b
100
AcDbEntity
8
1
100
AcDbCircle
6
CONTINUOUS
62
5
10
398.165981
20
899.918556
40
0.500000
100
AcDbArc
50
-89.999999
51
0.000000
0
LINE
5
41c
100
AcDbEntity
8
1
100
AcDbLine
6
CONTINUOUS
62
5
10
398.665981
20
899.918556
11
398.665981
21
903.418556
0
ARC
5
41d
100
AcDbEntity
8
1
100
AcDbCircle
6
CONTINUOUS
62
5
10
398.165981
20
903.418556
40
0.500000
100
AcDbArc
50
0.000000
51
89.999999
0
LINE
5
41e
100
AcDbEntity
8
1
100
AcDbLine
6
CONTINUOUS
62
5
10
398.165981
20
903.918556
11
394.665981
21
903.918556
0
ARC
5
41f
100
AcDbEntity
8
1
100
AcDbCircle
6
CONTINUOUS
62
5
10
394.665981
20
903.418556
40
0.500000
100
AcDbArc
50
89.999999
51
179.999998
0
LINE
5
420
100
AcDbEntity
8
1
100
AcDbLine
6
CONTINUOUS
62
5
10
394.165981
20
903.418556
11
394.165981
21
899.918556
0
ARC
5
421
100
AcDbEntity
8
1
100
AcDbCircle
6
CONTINUOUS
62
5
10
394.665981
20
899.918556
40
0.500000
100
AcDbArc
50
179.999998
51
-89.999999
0
LINE
5
422
100
AcDbEntity
8
1
100
AcDbLine
6
CONTINUOUS
62
5
10
394.665981
20
899.418556
11
398.165981
21
899.418556
0
CIRCLE
5
423
100
AcDbEntity
8
1
100
AcDbCircle
6
CONTINUOUS
62
5
10
396.415981
20
901.668556
40
1.900000
0
ARC
5
424
100
AcDbEntity
8
1
100
AcDbCircle
6
CONTINUOUS
62
5
10
396.415981
20
901.668556
40
1.650000
100
AcDbArc
50
179.999998
51
0.000000
0
LINE
5
425
100
AcDbEntity
8
1
100
AcDbLine
6
CONTINUOUS
62
5
10
398.065981
20
901.668556
11
398.065981
21
901.668556
0
ARC
5
426
100
AcDbEntity
8
1
100
AcDbCircle
6
CONTINUOUS
62
5
10
396.415981
20
901.668556
40
1.650000
100
AcDbArc
50
0.000000
51
179.999998
0
LINE
5
427
100
AcDbEntity
8
1
100
AcDbLine
6
CONTINUOUS
62
5
10
394.765981
20
901.668556
11
394.765981
21
901.668556
0
LINE
5
428
100
AcDbEntity
8
6
100
AcDbLine
6
CONTINUOUS
62
5
10
398.715375
20
938.609892
11
396.415376
21
938.609850
0
LINE
5
429
100
AcDbEntity
8
6
100
AcDbLine
6
CONTINUOUS
62
5
10
398.315376
20
938.609885
11
396.415376
21
938.609850
0
LINE
5
42a
100
AcDbEntity
8
6
100
AcDbLine
6
CONTINUOUS
62
5
10
398.015357
20
939.609879
11
396.415358
21
939.609850
0
LINE
5
42b
100
AcDbEntity
8
6
100
AcDbLine
6
CONTINUOUS
62
5
10
398.015335
20
940.809879
11
396.415336
21
940.809850
0
LINE
5
42c
100
AcDbEntity
8
6
100
AcDbLine
6
CONTINUOUS
62
5
10
398.598291
20
938.349880
11
396.415307
21
938.349840
0
LINE
5
42d
100
AcDbEntity
8
6
100
AcDbLine
6
CONTINUOUS
62
5
10
398.220316
20
938.139839
11
394.610453
21
938.139773
0
LINE
5
42e
100
AcDbEntity
8
6
100
AcDbLine
6
CONTINUOUS
62
5
10
398.170351
20
936.209908
11
394.660464
21
936.209844
0
ARC
5
42f
100
AcDbEntity
8
6
100
AcDbCircle
6
CONTINUOUS
62
5
10
398.015333
20
940.909879
40
0.100000
100
AcDbArc
50
-89.998952
51
0.001047
0
LINE
5
430
100
AcDbEntity
8
6
100
AcDbLine
6
CONTINUOUS
62
5
10
398.217288
20
940.859883
11
398.165334
21
940.889881
0
ARC
5
431
100
AcDbEntity
8
6
100
AcDbCircle
6
CONTINUOUS
62
5
10
398.015355
20
939.709879
40
0.100000
100
AcDbArc
50
-89.998952
51
0.001047
0
LINE
5
432
100
AcDbEntity
8
6
100
AcDbLine
6
CONTINUOUS
62
5
10
398.165334
20
940.889881
11
398.165329
21
941.209882
0
LINE
5
433
100
AcDbEntity
8
6
100
AcDbLine
6
CONTINUOUS
62
5
10
398.115355
20
939.709881
11
398.115328
21
941.209881
0
ARC
5
434
100
AcDbEntity
8
6
100
AcDbCircle
6
CONTINUOUS
62
5
10
397.985279
20
938.275772
40
0.100000
100
AcDbArc
50
-179.999931
51
-106.955937
0
ARC
5
435
100
AcDbEntity
8
6
100
AcDbCircle
6
CONTINUOUS
62
5
10
398.160269
20
938.849701
40
0.700000
100
AcDbArc
50
-106.956426
51
-73.041142
0
LINE
5
436
100
AcDbEntity
8
6
100
AcDbLine
6
CONTINUOUS
62
5
10
398.220348
20
936.349873
11
398.220350
21
936.259885
0
ARC
5
437
100
AcDbEntity
8
6
100
AcDbCircle
6
CONTINUOUS
62
5
10
398.170375
20
936.259884
40
0.050000
100
AcDbArc
50
-89.998982
51
0.001067
0
LINE
5
438
100
AcDbEntity
8
6
100
AcDbLine
6
CONTINUOUS
62
5
10
398.320469
20
936.450217
11
398.220397
21
936.350141
0
LINE
5
439
100
AcDbEntity
8
6
100
AcDbLine
6
CONTINUOUS
62
5
10
397.885278
20
938.349867
11
397.885279
21
938.275966
0
LINE
5
43a
100
AcDbEntity
8
6
100
AcDbLine
6
CONTINUOUS
62
5
10
398.435278
20
938.349877
11
397.885278
21
938.349867
0
LINE
5
43b
100
AcDbEntity
8
6
100
AcDbLine
6
CONTINUOUS
62
5
10
398.435278
20
938.349877
11
397.885278
21
938.349867
0
LINE
5
43c
100
AcDbEntity
8
1
100
AcDbLine
6
DOT2
62
5
10
355.561298
20
878.028556
11
416.176017
21
878.028556
0
POLYLINE
5
43d
100
AcDbEntity
8
1
6
CONTINUOUS
62
5
100
AcDb2dPolyline
66
1
10
0.0
20
0.0
30
0.0
70
1
0
VERTEX
5
43e
100
AcDbEntity
8
1
100
AcDbVertex
100
AcDb2dVertex
62
5
10
415.016164
20
889.028556
0
VERTEX
5
43f
100
AcDbEntity
8
1
100
AcDbVertex
100
AcDb2dVertex
62
5
10
375.016164
20
889.028556
0
VERTEX
5
440
100
AcDbEntity
8
1
100
AcDbVertex
100
AcDb2dVertex
62
5
10
375.016164
20
889.128556
0
VERTEX
5
441
100
AcDbEntity
8
1
100
AcDbVertex
100
AcDb2dVertex
62
5
10
415.016164
20
889.128556
0
SEQEND
5
442
100
AcDbEntity
8
1
0
ARC
5
443
100
AcDbEntity
8
1
100
AcDbCircle
6
CONTINUOUS
62
5
10
376.566164
20
880.728556
40
0.300000
100
AcDbArc
50
179.999998
51
-89.999999
0
LINE
5
444
100
AcDbEntity
8
1
100
AcDbLine
6
CONTINUOUS
62
5
10
376.266164
20
880.728556
11
376.266164
21
889.028556
0
LINE
5
445
100
AcDbEntity
8
1
100
AcDbLine
6
CONTINUOUS
62
5
10
412.116164
20
889.028556
11
412.116164
21
880.728556
0
ARC
5
446
100
AcDbEntity
8
1
100
AcDbCircle
6
CONTINUOUS
62
5
10
411.816164
20
880.728556
40
0.300000
100
AcDbArc
50
-89.999999
51
0.000000
0
LINE
5
447
100
AcDbEntity
8
1
100
AcDbLine
6
CONTINUOUS
62
5
10
411.816164
20
880.428556
11
376.566164
21
880.428556
0
ARC
5
448
100
AcDbEntity
8
1
100
AcDbCircle
6
CONTINUOUS
62
5
10
377.359647
20
880.028556
40
1.000000
100
AcDbArc
50
179.999998
51
-89.999999
0
LINE
5
449
100
AcDbEntity
8
1
100
AcDbLine
6
CONTINUOUS
62
5
10
377.359647
20
879.028556
11
411.016164
21
879.028556
0
ARC
5
44a
100
AcDbEntity
8
1
100
AcDbCircle
6
CONTINUOUS
62
5
10
411.016164
20
880.028556
40
1.000000
100
AcDbArc
50
-89.999999
51
0.000000
0
LINE
5
44b
100
AcDbEntity
8
1
100
AcDbLine
6
CONTINUOUS
62
5
10
412.016164
20
880.028556
11
412.016164
21
880.128556
0
LINE
5
44c
100
AcDbEntity
8
1
100
AcDbLine
6
CONTINUOUS
62
5
10
376.359647
20
880.510953
11
376.359647
21
880.028556
0
LINE
5
44d
100
AcDbEntity
8
1
100
AcDbLine
6
CONTINUOUS
62
5
10
376.479559
20
888.578556
11
411.647507
21
888.578556
0
LINE
5
44e
100
AcDbEntity
8
1
100
AcDbLine
6
CONTINUOUS
62
5
10
413.316181
20
895.668556
11
387.416181
21
895.668556
0
LINE
5
44f
100
AcDbEntity
8
6
100
AcDbLine
6
CONTINUOUS
62
5
10
413.316181
20
895.168531
11
393.666179
21
895.168556
0
LINE
5
450
100
AcDbEntity
8
6
100
AcDbLine
6
CONTINUOUS
62
5
10
393.666179
20
895.668556
11
413.316181
21
895.668556
0
LINE
5
451
100
AcDbEntity
8
6
100
AcDbLine
6
CONTINUOUS
62
5
10
413.316181
20
897.468556
11
393.666179
21
897.468556
0
LINE
5
452
100
AcDbEntity
8
6
100
AcDbLine
6
CONTINUOUS
62
5
10
393.666179
20
897.968558
11
413.266181
21
897.968558
0
LINE
5
453
100
AcDbEntity
8
6
100
AcDbLine
6
CONTINUOUS
62
5
10
396.866181
20
897.968558
11
413.316181
21
897.968558
0
LINE
5
454
100
AcDbEntity
8
6
100
AcDbLine
6
CONTINUOUS
62
5
10
413.316181
20
897.468556
11
396.866181
21
897.468556
0
LINE
5
455
100
AcDbEntity
8
1
100
AcDbLine
6
CONTINUOUS
62
5
10
413.316181
20
907.668556
11
387.416181
21
907.668556
0
LINE
5
456
100
AcDbEntity
8
6
100
AcDbLine
6
CONTINUOUS
62
5
10
413.316181
20
908.168577
11
393.666176
21
908.168555
0
LINE
5
457
100
AcDbEntity
8
6
100
AcDbLine
6
CONTINUOUS
62
5
10
393.666176
20
905.368554
11
413.316181
21
905.368554
0
LINE
5
458
100
AcDbEntity
8
6
100
AcDbLine
6
CONTINUOUS
62
5
10
413.316181
20
905.868556
11
393.666176
21
905.868556
0
LINE
5
459
100
AcDbEntity
8
6
100
AcDbLine
6
CONTINUOUS
62
5
10
393.666182
20
907.668556
11
413.316181
21
907.668556
0
ARC
5
45a
100
AcDbEntity
8
1
100
AcDbCircle
6
CONTINUOUS
62
5
10
375.016164
20
948.109876
40
0.600000
100
AcDbArc
50
-89.999999
51
89.999999
0
POLYLINE
5
45b
100
AcDbEntity
8
1
6
CONTINUOUS
62
5
100
AcDb2dPolyline
66
1
10
0.0
20
0.0
30
0.0
70
0
0
VERTEX
5
45c
100
AcDbEntity
8
1
100
AcDbVertex
100
AcDb2dVertex
62
5
10
375.016164
20
947.509876
0
VERTEX
5
45d
100
AcDbEntity
8
1
100
AcDbVertex
100
AcDb2dVertex
62
5
10
375.016164
20
939.010948
0
VERTEX
5
45e
100
AcDbEntity
8
1
100
AcDbVertex
100
AcDb2dVertex
62
5
10
375.117236
20
938.909876
0
VERTEX
5
45f
100
AcDbEntity
8
1
100
AcDbVertex
100
AcDb2dVertex
62
5
10
376.266164
20
938.909876
0
VERTEX
5
460
100
AcDbEntity
8
1
100
AcDbVertex
100
AcDb2dVertex
62
5
10
376.266164
20
937.959876
0
VERTEX
5
461
100
AcDbEntity
8
1
100
AcDbVertex
100
AcDb2dVertex
62
5
10
389.904398
20
937.959876
0
SEQEND
5
462
100
AcDbEntity
8
1
0
POLYLINE
5
463
100
AcDbEntity
8
1
6
CONTINUOUS
62
5
100
AcDb2dPolyline
66
1
10
0.0
20
0.0
30
0.0
70
0
0
VERTEX
5
464
100
AcDbEntity
8
1
100
AcDbVertex
100
AcDb2dVertex
62
5
10
414.066181
20
957.509876
0
VERTEX
5
465
100
AcDbEntity
8
1
100
AcDbVertex
100
AcDb2dVertex
62
5
10
412.116164
20
957.509876
0
VERTEX
5
466
100
AcDbEntity
8
1
100
AcDbVertex
100
AcDb2dVertex
62
5
10
412.116164
20
958.259876
0
VERTEX
5
467
100
AcDbEntity
8
1
100
AcDbVertex
100
AcDb2dVertex
62
5
10
376.266164
20
958.259876
0
VERTEX
5
468
100
AcDbEntity
8
1
100
AcDbVertex
100
AcDb2dVertex
62
5
10
376.266164
20
957.309876
0
VERTEX
5
469
100
AcDbEntity
8
1
100
AcDbVertex
100
AcDb2dVertex
62
5
10
375.117236
20
957.309876
0
VERTEX
5
46a
100
AcDbEntity
8
1
100
AcDbVertex
100
AcDb2dVertex
62
5
10
375.016164
20
957.208804
0
VERTEX
5
46b
100
AcDbEntity
8
1
100
AcDbVertex
100
AcDb2dVertex
62
5
10
375.016164
20
948.709876
0
SEQEND
5
46c
100
AcDbEntity
8
1
0
LINE
5
46d
100
AcDbEntity
8
1
100
AcDbLine
6
CONTINUOUS
62
5
10
413.316181
20
942.109876
11
387.416181
21
942.109876
0
LINE
5
46e
100
AcDbEntity
8
6
100
AcDbLine
6
CONTINUOUS
62
5
10
393.666179
20
942.109876
11
413.316181
21
942.109876
0
LINE
5
46f
100
AcDbEntity
8
6
100
AcDbLine
6
CONTINUOUS
62
5
10
413.316181
20
941.609851
11
393.666179
21
941.609877
0
LINE
5
470
100
AcDbEntity
8
1
100
AcDbLine
6
DOT2
62
5
10
421.404784
20
948.109876
11
382.136784
21
948.109876
0
LINE
5
471
100
AcDbEntity
8
1
100
AcDbLine
6
CONTINUOUS
62
5
10
413.316181
20
954.109876
11
387.416181
21
954.109876
0
LINE
5
472
100
AcDbEntity
8
1
100
AcDbLine
6
HIDDEN
62
5
10
376.266164
20
958.159876
11
412.116164
21
958.159876
0
POLYLINE
5
473
100
AcDbEntity
8
1
6
CONTINUOUS
62
5
100
AcDb2dPolyline
66
1
10
0.0
20
0.0
30
0.0
70
0
0
VERTEX
5
474
100
AcDbEntity
8
1
100
AcDbVertex
100
AcDb2dVertex
62
5
10
412.016164
20
959.109876
0
VERTEX
5
475
100
AcDbEntity
8
1
100
AcDbVertex
100
AcDb2dVertex
62
5
10
377.309647
20
959.109876
0
VERTEX
5
476
100
AcDbEntity
8
1
100
AcDbVertex
100
AcDb2dVertex
62
5
10
376.359647
20
958.159876
0
SEQEND
5
477
100
AcDbEntity
8
1
0
LINE
5
478
100
AcDbEntity
8
1
100
AcDbLine
6
CONTINUOUS
62
5
10
411.188633
20
957.705992
11
376.643410
21
957.705992
0
LINE
5
479
100
AcDbEntity
8
6
100
AcDbLine
6
CONTINUOUS
62
5
10
413.316181
20
954.609897
11
393.666176
21
954.609876
0
LINE
5
47a
100
AcDbEntity
8
6
100
AcDbLine
6
CONTINUOUS
62
5
10
413.316181
20
943.909876
11
393.666179
21
943.909876
0
LINE
5
47b
100
AcDbEntity
8
6
100
AcDbLine
6
CONTINUOUS
62
5
10
393.666179
20
944.409878
11
412.916180
21
944.409878
0
LINE
5
47c
100
AcDbEntity
8
6
100
AcDbLine
6
CONTINUOUS
62
5
10
393.666182
20
954.109876
11
413.316181
21
954.109876
0
LINE
5
47d
100
AcDbEntity
8
6
100
AcDbLine
6
CONTINUOUS
62
5
10
413.316181
20
952.309876
11
393.666176
21
952.309876
0
LINE
5
47e
100
AcDbEntity
8
6
100
AcDbLine
6
CONTINUOUS
62
5
10
393.666176
20
951.809874
11
412.966181
21
951.809874
0
LINE
5
47f
100
AcDbEntity
8
6
100
AcDbLine
6
CONTINUOUS
62
5
10
413.316181
20
943.909876
11
396.866181
21
943.909876
0
LINE
5
480
100
AcDbEntity
8
6
100
AcDbLine
6
CONTINUOUS
62
5
10
396.866181
20
944.409878
11
412.966181
21
944.409878
0
ARC
5
481
100
AcDbEntity
8
1
100
AcDbCircle
6
CONTINUOUS
62
5
10
398.165981
20
899.918556
40
0.850000
100
AcDbArc
50
-89.999999
51
0.000000
0
LINE
5
482
100
AcDbEntity
8
1
100
AcDbLine
6
CONTINUOUS
62
5
10
399.015981
20
899.918556
11
399.015981
21
903.418556
0
ARC
5
483
100
AcDbEntity
8
1
100
AcDbCircle
6
CONTINUOUS
62
5
10
398.165981
20
903.418556
40
0.850000
100
AcDbArc
50
0.000000
51
89.999999
0
LINE
5
484
100
AcDbEntity
8
1
100
AcDbLine
6
CONTINUOUS
62
5
10
398.165981
20
904.268556
11
394.665981
21
904.268556
0
ARC
5
485
100
AcDbEntity
8
1
100
AcDbCircle
6
CONTINUOUS
62
5
10
394.665981
20
903.418556
40
0.850000
100
AcDbArc
50
89.999999
51
179.999998
0
LINE
5
486
100
AcDbEntity
8
1
100
AcDbLine
6
CONTINUOUS
62
5
10
393.815981
20
903.418556
11
393.815981
21
899.918556
0
ARC
5
487
100
AcDbEntity
8
1
100
AcDbCircle
6
CONTINUOUS
62
5
10
394.665981
20
899.918556
40
0.850000
100
AcDbArc
50
179.999998
51
-89.999999
0
LINE
5
488
100
AcDbEntity
8
1
100
AcDbLine
6
CONTINUOUS
62
5
10
394.665981
20
899.068556
11
398.165981
21
899.068556
0
LINE
5
489
100
AcDbEntity
8
6
100
AcDbLine
6
CONTINUOUS
62
5
10
398.865329
20
941.209895
11
398.165329
21
941.209882
0
LINE
5
48a
100
AcDbEntity
8
6
100
AcDbLine
6
CONTINUOUS
62
5
10
399.015329
20
941.209898
11
398.115328
21
941.209881
0
LINE
5
48b
100
AcDbEntity
8
6
100
AcDbLine
6
CONTINUOUS
62
5
10
398.865334
20
940.889894
11
398.165334
21
940.889881
0
LINE
5
48c
100
AcDbEntity
8
6
100
AcDbLine
6
CONTINUOUS
62
5
10
398.813382
20
940.859894
11
398.217288
21
940.859883
0
LINE
5
48d
100
AcDbEntity
8
1
100
AcDbLine
6
CONTINUOUS
62
5
10
412.131880
20
869.981817
11
413.719380
21
869.981817
0
LINE
5
48e
100
AcDbEntity
8
1
100
AcDbLine
6
CONTINUOUS
62
5
10
414.516164
20
869.503640
11
414.516164
21
869.603556
0
ARC
5
48f
100
AcDbEntity
8
1
100
AcDbCircle
6
CONTINUOUS
62
5
10
414.316164
20
869.234151
40
0.300000
100
AcDbArc
50
89.999999
51
179.999998
0
LINE
5
490
100
AcDbEntity
8
1
100
AcDbLine
6
CONTINUOUS
62
5
10
414.016164
20
869.234151
11
414.016164
21
869.096870
0
LINE
5
491
100
AcDbEntity
8
1
100
AcDbLine
6
CONTINUOUS
62
5
10
414.316164
20
869.534151
11
414.316164
21
869.534151
0
LINE
5
492
100
AcDbEntity
8
1
100
AcDbLine
6
CONTINUOUS
62
5
10
400.516164
20
867.224765
11
400.516164
21
864.828556
0
LINE
5
493
100
AcDbEntity
8
1
100
AcDbLine
6
DASHED
62
5
10
401.516164
20
867.228556
11
401.516164
21
866.928556
0
ARC
5
494
100
AcDbEntity
8
1
100
AcDbCircle
6
CONTINUOUS
62
5
10
414.316164
20
869.981817
40
0.300000
100
AcDbArc
50
89.999999
51
179.999998
0
LINE
5
495
100
AcDbEntity
8
1
100
AcDbLine
6
CONTINUOUS
62
5
10
414.016164
20
869.981817
11
414.016164
21
866.252820
0
ARC
5
496
100
AcDbEntity
8
1
100
AcDbCircle
6
CONTINUOUS
62
5
10
413.716164
20
866.252820
40
0.300000
100
AcDbArc
50
-45.000000
51
0.000000
0
LINE
5
497
100
AcDbEntity
8
1
100
AcDbLine
6
CONTINUOUS
62
5
10
413.928296
20
866.040688
11
413.104032
21
865.216424
0
ARC
5
498
100
AcDbEntity
8
1
100
AcDbCircle
6
CONTINUOUS
62
5
10
412.891900
20
865.428556
40
0.300000
100
AcDbArc
50
-89.999999
51
-45.000000
0
LINE
5
499
100
AcDbEntity
8
1
100
AcDbLine
6
CONTINUOUS
62
5
10
412.891900
20
865.128556
11
401.816164
21
865.128556
0
ARC
5
49a
100
AcDbEntity
8
1
100
AcDbCircle
6
CONTINUOUS
62
5
10
401.816164
20
864.828556
40
0.300000
100
AcDbArc
50
89.999999
51
179.999998
0
LINE
5
49b
100
AcDbEntity
8
1
100
AcDbLine
6
CONTINUOUS
62
5
10
401.516164
20
864.828556
11
401.516164
21
864.828556
0
LINE
5
49c
100
AcDbEntity
8
1
100
AcDbLine
6
CONTINUOUS
62
5
10
414.316164
20
870.281817
11
414.316164
21
870.281817
0
ARC
5
49d
100
AcDbEntity
8
1
100
AcDbCircle
6
DASHED
62
5
10
402.016164
20
867.228556
40
0.500000
100
AcDbArc
50
89.999999
51
179.999998
0
LINE
5
49e
100
AcDbEntity
8
1
100
AcDbLine
6
DASHED
62
5
10
402.016164
20
867.728556
11
414.016164
21
867.728556
0
ARC
5
49f
100
AcDbEntity
8
1
100
AcDbCircle
6
CONTINUOUS
62
5
10
425.316181
20
867.726191
40
0.200000
100
AcDbArc
50
-89.999999
51
0.000000
0
POLYLINE
5
4a0
100
AcDbEntity
8
1
6
CONTINUOUS
62
5
100
AcDb2dPolyline
66
1
10
0.0
20
0.0
30
0.0
70
0
0
VERTEX
5
4a1
100
AcDbEntity
8
1
100
AcDbVertex
100
AcDb2dVertex
62
5
10
425.316181
20
867.526191
0
VERTEX
5
4a2
100
AcDbEntity
8
1
100
AcDbVertex
100
AcDb2dVertex
62
5
10
414.516164
20
867.526191
0
VERTEX
5
4a3
100
AcDbEntity
8
1
100
AcDbVertex
100
AcDb2dVertex
62
5
10
414.516164
20
869.503640
0
SEQEND
5
4a4
100
AcDbEntity
8
1
0
LINE
5
4a5
100
AcDbEntity
8
1
100
AcDbLine
6
CONTINUOUS
62
5
10
425.516181
20
868.028556
11
425.516181
21
867.726191
0
LINE
5
4a6
100
AcDbEntity
8
1
100
AcDbLine
6
DOT2
62
5
10
397.016164
20
868.533406
11
397.016164
21
864.088406
0
POLYLINE
5
4a7
100
AcDbEntity
8
1
6
CONTINUOUS
62
5
100
AcDb2dPolyline
66
1
10
0.0
20
0.0
30
0.0
70
1
0
VERTEX
5
4a8
100
AcDbEntity
8
1
100
AcDbVertex
100
AcDb2dVertex
62
5
10
362.116164
20
864.828556
0
VERTEX
5
4a9
100
AcDbEntity
8
1
100
AcDbVertex
100
AcDb2dVertex
62
5
10
363.916164
20
864.828556
0
VERTEX
5
4aa
100
AcDbEntity
8
1
100
AcDbVertex
100
AcDb2dVertex
62
5
10
363.916164
20
867.528556
0
VERTEX
5
4ab
100
AcDbEntity
8
1
100
AcDbVertex
100
AcDb2dVertex
62
5
10
362.116164
20
867.528556
0
SEQEND
5
4ac
100
AcDbEntity
8
1
0
LINE
5
4ad
100
AcDbEntity
8
1
100
AcDbLine
6
DOT2
62
5
10
363.016164
20
868.533406
11
363.016164
21
864.088406
0
LINE
5
4ae
100
AcDbEntity
8
1
100
AcDbLine
6
CONTINUOUS
62
5
10
359.016164
20
864.828556
11
359.016164
21
867.228556
0
POLYLINE
5
4af
100
AcDbEntity
8
1
6
CONTINUOUS
62
5
100
AcDb2dPolyline
66
1
10
0.0
20
0.0
30
0.0
70
1
0
VERTEX
5
4b0
100
AcDbEntity
8
1
100
AcDbVertex
100
AcDb2dVertex
62
5
10
361.116164
20
867.845556
0
VERTEX
5
4b1
100
AcDbEntity
8
1
100
AcDbVertex
100
AcDb2dVertex
62
5
10
364.916164
20
867.845556
0
VERTEX
5
4b2
100
AcDbEntity
8
1
100
AcDbVertex
100
AcDb2dVertex
62
5
10
364.916164
20
867.528556
0
VERTEX
5
4b3
100
AcDbEntity
8
1
100
AcDbVertex
100
AcDb2dVertex
62
5
10
361.116164
20
867.528556
0
SEQEND
5
4b4
100
AcDbEntity
8
1
0
LINE
5
4b5
100
AcDbEntity
8
0
100
AcDbLine
6
DOT2
62
5
10
397.016164
20
806.431825
11
397.016164
21
801.782718
0
LINE
5
4b6
100
AcDbEntity
8
0
100
AcDbLine
6
DOT2
62
5
10
397.016164
20
786.644772
11
397.016164
21
782.720119
0
POLYLINE
5
4b7
100
AcDbEntity
8
1
6
CONTINUOUS
62
5
100
AcDb2dPolyline
66
1
10
0.0
20
0.0
30
0.0
70
0
0
VERTEX
5
4b8
100
AcDbEntity
8
1
100
AcDbVertex
100
AcDb2dVertex
62
5
10
374.516164
20
793.128240
0
VERTEX
5
4b9
100
AcDbEntity
8
1
100
AcDbVertex
100
AcDb2dVertex
62
5
10
380.516164
20
793.128240
0
VERTEX
5
4ba
100
AcDbEntity
8
1
100
AcDbVertex
100
AcDb2dVertex
62
5
10
380.516164
20
783.128240
0
SEQEND
5
4bb
100
AcDbEntity
8
1
0
POLYLINE
5
4bc
100
AcDbEntity
8
1
6
CONTINUOUS
62
5
100
AcDb2dPolyline
66
1
10
0.0
20
0.0
30
0.0
70
0
0
VERTEX
5
4bd
100
AcDbEntity
8
1
100
AcDbVertex
100
AcDb2dVertex
62
5
10
374.516164
20
795.128240
0
VERTEX
5
4be
100
AcDbEntity
8
1
100
AcDbVertex
100
AcDb2dVertex
62
5
10
380.516164
20
795.128240
0
VERTEX
5
4bf
100
AcDbEntity
8
1
100
AcDbVertex
100
AcDb2dVertex
62
5
10
380.516164
20
805.128240
0
SEQEND
5
4c0
100
AcDbEntity
8
1
0
LINE
5
4c1
100
AcDbEntity
8
0
100
AcDbLine
6
DOT2
62
5
10
363.016164
20
805.829426
11
363.016164
21
801.885874
0
LINE
5
4c2
100
AcDbEntity
8
0
100
AcDbLine
6
DOT2
62
5
10
363.016164
20
786.247897
11
363.016164
21
782.841387
0
ARC
5
4c3
100
AcDbEntity
8
1
100
AcDbCircle
6
CONTINUOUS
62
5
10
374.016164
20
800.328240
40
0.500000
100
AcDbArc
50
0.000000
51
89.999999
0
LINE
5
4c4
100
AcDbEntity
8
1
100
AcDbLine
6
CONTINUOUS
62
5
10
374.016164
20
800.828240
11
360.516164
21
800.828240
0
ARC
5
4c5
100
AcDbEntity
8
1
100
AcDbCircle
6
CONTINUOUS
62
5
10
360.516164
20
800.328240
40
0.500000
100
AcDbArc
50
89.999999
51
179.999998
0
LINE
5
4c6
100
AcDbEntity
8
1
100
AcDbLine
6
CONTINUOUS
62
5
10
360.016164
20
800.328240
11
360.016164
21
787.928240
0
ARC
5
4c7
100
AcDbEntity
8
1
100
AcDbCircle
6
CONTINUOUS
62
5
10
360.516164
20
787.928240
40
0.500000
100
AcDbArc
50
179.999998
51
-89.999999
0
LINE
5
4c8
100
AcDbEntity
8
1
100
AcDbLine
6
CONTINUOUS
62
5
10
360.516164
20
787.428240
11
374.016164
21
787.428240
0
ARC
5
4c9
100
AcDbEntity
8
1
100
AcDbCircle
6
CONTINUOUS
62
5
10
374.016164
20
787.928240
40
0.500000
100
AcDbArc
50
-89.999999
51
0.000000
0
LINE
5
4ca
100
AcDbEntity
8
1
100
AcDbLine
6
CONTINUOUS
62
5
10
374.516164
20
787.928240
11
374.516164
21
800.328240
0
POLYLINE
5
4cb
100
AcDbEntity
8
1
6
CONTINUOUS
62
5
100
AcDb2dPolyline
66
1
10
0.0
20
0.0
30
0.0
70
1
0
VERTEX
5
4cc
100
AcDbEntity
8
1
100
AcDbVertex
100
AcDb2dVertex
62
5
10
396.116164
20
864.828556
0
VERTEX
5
4cd
100
AcDbEntity
8
1
100
AcDbVertex
100
AcDb2dVertex
62
5
10
397.916164
20
864.828556
0
VERTEX
5
4ce
100
AcDbEntity
8
1
100
AcDbVertex
100
AcDb2dVertex
62
5
10
397.916164
20
867.528556
0
VERTEX
5
4cf
100
AcDbEntity
8
1
100
AcDbVertex
100
AcDb2dVertex
62
5
10
396.116164
20
867.528556
0
SEQEND
5
4d0
100
AcDbEntity
8
1
0
LINE
5
4d1
100
AcDbEntity
8
0
100
AcDbLine
6
DOT2
62
5
10
356.425564
20
794.128240
11
402.370460
21
794.128240
0
LINE
5
4d2
100
AcDbEntity
8
1
100
AcDbLine
6
CONTINUOUS
62
5
10
358.016164
20
869.534151
11
411.516164
21
869.534151
0
ARC
5
4d3
100
AcDbEntity
8
1
100
AcDbCircle
6
CONTINUOUS
62
5
10
397.016164
20
785.028240
40
0.900000
100
AcDbArc
50
0.000000
51
-179.999998
0
POLYLINE
5
4d4
100
AcDbEntity
8
1
6
CONTINUOUS
62
5
100
AcDb2dPolyline
66
1
10
0.0
20
0.0
30
0.0
70
0
0
VERTEX
5
4d5
100
AcDbEntity
8
1
100
AcDbVertex
100
AcDb2dVertex
62
5
10
397.916164
20
785.028240
0
VERTEX
5
4d6
100
AcDbEntity
8
1
100
AcDbVertex
100
AcDb2dVertex
62
5
10
397.916164
20
783.328240
0
VERTEX
5
4d7
100
AcDbEntity
8
1
100
AcDbVertex
100
AcDb2dVertex
62
5
10
398.116164
20
783.128240
0
VERTEX
5
4d8
100
AcDbEntity
8
1
100
AcDbVertex
100
AcDb2dVertex
62
5
10
400.516164
20
783.128240
0
VERTEX
5
4d9
100
AcDbEntity
8
1
100
AcDbVertex
100
AcDb2dVertex
62
5
10
401.516164
20
784.128240
0
VERTEX
5
4da
100
AcDbEntity
8
1
100
AcDbVertex
100
AcDb2dVertex
62
5
10
401.516164
20
804.128240
0
VERTEX
5
4db
100
AcDbEntity
8
1
100
AcDbVertex
100
AcDb2dVertex
62
5
10
400.516164
20
805.128240
0
VERTEX
5
4dc
100
AcDbEntity
8
1
100
AcDbVertex
100
AcDb2dVertex
62
5
10
398.116164
20
805.128240
0
VERTEX
5
4dd
100
AcDbEntity
8
1
100
AcDbVertex
100
AcDb2dVertex
62
5
10
397.916164
20
804.928240
0
VERTEX
5
4de
100
AcDbEntity
8
1
100
AcDbVertex
100
AcDb2dVertex
62
5
10
397.916164
20
803.228240
0
SEQEND
5
4df
100
AcDbEntity
8
1
0
ARC
5
4e0
100
AcDbEntity
8
1
100
AcDbCircle
6
CONTINUOUS
62
5
10
397.016164
20
803.228240
40
0.900000
100
AcDbArc
50
179.999998
51
0.000000
0
POLYLINE
5
4e1
100
AcDbEntity
8
1
6
CONTINUOUS
62
5
100
AcDb2dPolyline
66
1
10
0.0
20
0.0
30
0.0
70
0
0
VERTEX
5
4e2
100
AcDbEntity
8
1
100
AcDbVertex
100
AcDb2dVertex
62
5
10
396.116164
20
803.228240
0
VERTEX
5
4e3
100
AcDbEntity
8
1
100
AcDbVertex
100
AcDb2dVertex
62
5
10
396.116164
20
804.928240
0
VERTEX
5
4e4
100
AcDbEntity
8
1
100
AcDbVertex
100
AcDb2dVertex
62
5
10
395.916164
20
805.128240
0
VERTEX
5
4e5
100
AcDbEntity
8
1
100
AcDbVertex
100
AcDb2dVertex
62
5
10
364.116164
20
805.128240
0
VERTEX
5
4e6
100
AcDbEntity
8
1
100
AcDbVertex
100
AcDb2dVertex
62
5
10
363.916164
20
804.928240
0
VERTEX
5
4e7
100
AcDbEntity
8
1
100
AcDbVertex
100
AcDb2dVertex
62
5
10
363.916164
20
803.228240
0
SEQEND
5
4e8
100
AcDbEntity
8
1
0
ARC
5
4e9
100
AcDbEntity
8
1
100
AcDbCircle
6
CONTINUOUS
62
5
10
363.016164
20
803.228240
40
0.900000
100
AcDbArc
50
179.999998
51
0.000000
0
POLYLINE
5
4ea
100
AcDbEntity
8
1
6
CONTINUOUS
62
5
100
AcDb2dPolyline
66
1
10
0.0
20
0.0
30
0.0
70
0
0
VERTEX
5
4eb
100
AcDbEntity
8
1
100
AcDbVertex
100
AcDb2dVertex
62
5
10
362.116164
20
803.228240
0
VERTEX
5
4ec
100
AcDbEntity
8
1
100
AcDbVertex
100
AcDb2dVertex
62
5
10
362.116164
20
804.928240
0
VERTEX
5
4ed
100
AcDbEntity
8
1
100
AcDbVertex
100
AcDb2dVertex
62
5
10
361.916164
20
805.128240
0
VERTEX
5
4ee
100
AcDbEntity
8
1
100
AcDbVertex
100
AcDb2dVertex
62
5
10
359.016164
20
805.128240
0
VERTEX
5
4ef
100
AcDbEntity
8
1
100
AcDbVertex
100
AcDb2dVertex
62
5
10
358.016164
20
804.128240
0
VERTEX
5
4f0
100
AcDbEntity
8
1
100
AcDbVertex
100
AcDb2dVertex
62
5
10
358.016164
20
784.128240
0
VERTEX
5
4f1
100
AcDbEntity
8
1
100
AcDbVertex
100
AcDb2dVertex
62
5
10
359.016164
20
783.128240
0
VERTEX
5
4f2
100
AcDbEntity
8
1
100
AcDbVertex
100
AcDb2dVertex
62
5
10
361.916164
20
783.128240
0
VERTEX
5
4f3
100
AcDbEntity
8
1
100
AcDbVertex
100
AcDb2dVertex
62
5
10
362.116164
20
783.328240
0
VERTEX
5
4f4
100
AcDbEntity
8
1
100
AcDbVertex
100
AcDb2dVertex
62
5
10
362.116164
20
785.028240
0
SEQEND
5
4f5
100
AcDbEntity
8
1
0
ARC
5
4f6
100
AcDbEntity
8
1
100
AcDbCircle
6
CONTINUOUS
62
5
10
363.016164
20
785.028240
40
0.900000
100
AcDbArc
50
0.000000
51
-179.999998
0
POLYLINE
5
4f7
100
AcDbEntity
8
1
6
CONTINUOUS
62
5
100
AcDb2dPolyline
66
1
10
0.0
20
0.0
30
0.0
70
0
0
VERTEX
5
4f8
100
AcDbEntity
8
1
100
AcDbVertex
100
AcDb2dVertex
62
5
10
363.916164
20
785.028240
0
VERTEX
5
4f9
100
AcDbEntity
8
1
100
AcDbVertex
100
AcDb2dVertex
62
5
10
363.916164
20
783.328240
0
VERTEX
5
4fa
100
AcDbEntity
8
1
100
AcDbVertex
100
AcDb2dVertex
62
5
10
364.116164
20
783.128240
0
VERTEX
5
4fb
100
AcDbEntity
8
1
100
AcDbVertex
100
AcDb2dVertex
62
5
10
395.916164
20
783.128240
0
VERTEX
5
4fc
100
AcDbEntity
8
1
100
AcDbVertex
100
AcDb2dVertex
62
5
10
396.116164
20
783.328240
0
VERTEX
5
4fd
100
AcDbEntity
8
1
100
AcDbVertex
100
AcDb2dVertex
62
5
10
396.116164
20
785.028240
0
SEQEND
5
4fe
100
AcDbEntity
8
1
0
POLYLINE
5
4ff
100
AcDbEntity
8
1
6
CONTINUOUS
62
5
100
AcDb2dPolyline
66
1
10
0.0
20
0.0
30
0.0
70
0
0
VERTEX
5
500
100
AcDbEntity
8
1
100
AcDbVertex
100
AcDb2dVertex
62
5
10
401.516164
20
793.128240
0
VERTEX
5
501
100
AcDbEntity
8
1
100
AcDbVertex
100
AcDb2dVertex
62
5
10
382.516164
20
793.128240
0
VERTEX
5
502
100
AcDbEntity
8
1
100
AcDbVertex
100
AcDb2dVertex
62
5
10
382.516164
20
783.128240
0
SEQEND
5
503
100
AcDbEntity
8
1
0
POLYLINE
5
504
100
AcDbEntity
8
1
6
CONTINUOUS
62
5
100
AcDb2dPolyline
66
1
10
0.0
20
0.0
30
0.0
70
0
0
VERTEX
5
505
100
AcDbEntity
8
1
100
AcDbVertex
100
AcDb2dVertex
62
5
10
382.516164
20
805.128240
0
VERTEX
5
506
100
AcDbEntity
8
1
100
AcDbVertex
100
AcDb2dVertex
62
5
10
382.516164
20
795.128240
0
VERTEX
5
507
100
AcDbEntity
8
1
100
AcDbVertex
100
AcDb2dVertex
62
5
10
401.516164
20
795.128240
0
SEQEND
5
508
100
AcDbEntity
8
1
0
POLYLINE
5
509
100
AcDbEntity
8
1
6
CONTINUOUS
62
5
100
AcDb2dPolyline
66
1
10
0.0
20
0.0
30
0.0
70
1
0
VERTEX
5
50a
100
AcDbEntity
8
1
100
AcDbVertex
100
AcDb2dVertex
62
5
10
395.116164
20
867.845556
0
VERTEX
5
50b
100
AcDbEntity
8
1
100
AcDbVertex
100
AcDb2dVertex
62
5
10
398.916164
20
867.845556
0
VERTEX
5
50c
100
AcDbEntity
8
1
100
AcDbVertex
100
AcDb2dVertex
62
5
10
398.916164
20
867.528556
0
VERTEX
5
50d
100
AcDbEntity
8
1
100
AcDbVertex
100
AcDb2dVertex
62
5
10
395.116164
20
867.528556
0
SEQEND
5
50e
100
AcDbEntity
8
1
0
LINE
5
50f
100
AcDbEntity
8
1
100
AcDbLine
6
CONTINUOUS
62
5
10
414.516164
20
869.603556
11
414.516164
21
886.855850
0
LINE
5
510
100
AcDbEntity
8
1
100
AcDbLine
6
CONTINUOUS
62
5
10
425.516181
20
868.028556
11
425.516181
21
913.828556
0
ARC
5
511
100
AcDbEntity
8
1
100
AcDbCircle
6
CONTINUOUS
62
5
10
414.416164
20
888.728556
40
0.200000
100
AcDbArc
50
179.999998
51
-89.999999
0
POLYLINE
5
512
100
AcDbEntity
8
1
6
CONTINUOUS
62
5
100
AcDb2dPolyline
66
1
10
0.0
20
0.0
30
0.0
70
0
0
VERTEX
5
513
100
AcDbEntity
8
1
100
AcDbVertex
100
AcDb2dVertex
62
5
10
414.216164
20
888.728556
0
VERTEX
5
514
100
AcDbEntity
8
1
100
AcDbVertex
100
AcDb2dVertex
62
5
10
414.216164
20
889.028556
0
VERTEX
5
515
100
AcDbEntity
8
1
100
AcDbVertex
100
AcDb2dVertex
62
5
10
412.116164
20
889.028556
0
SEQEND
5
516
100
AcDbEntity
8
1
0
POLYLINE
5
517
100
AcDbEntity
8
1
6
CONTINUOUS
62
5
100
AcDb2dPolyline
66
1
10
0.0
20
0.0
30
0.0
70
0
0
VERTEX
5
518
100
AcDbEntity
8
1
100
AcDbVertex
100
AcDb2dVertex
62
5
10
414.016164
20
867.728556
0
VERTEX
5
519
100
AcDbEntity
8
1
100
AcDbVertex
100
AcDb2dVertex
62
5
10
414.516164
20
867.728556
0
VERTEX
5
51a
100
AcDbEntity
8
1
100
AcDbVertex
100
AcDb2dVertex
62
5
10
414.516164
20
888.528556
0
VERTEX
5
51b
100
AcDbEntity
8
1
100
AcDbVertex
100
AcDb2dVertex
62
5
10
414.416164
20
888.528556
0
SEQEND
5
51c
100
AcDbEntity
8
1
0
POLYLINE
5
51d
100
AcDbEntity
8
1
6
CONTINUOUS
62
5
100
AcDb2dPolyline
66
1
10
0.0
20
0.0
30
0.0
70
0
0
VERTEX
5
51e
100
AcDbEntity
8
1
100
AcDbVertex
100
AcDb2dVertex
62
5
10
350.616164
20
878.028556
0
VERTEX
5
51f
100
AcDbEntity
8
1
100
AcDbVertex
100
AcDb2dVertex
62
5
10
350.616164
20
871.978556
0
VERTEX
5
520
100
AcDbEntity
8
1
100
AcDbVertex
100
AcDb2dVertex
62
5
10
350.816164
20
871.778556
0
VERTEX
5
521
100
AcDbEntity
8
1
100
AcDbVertex
100
AcDb2dVertex
62
5
10
356.316164
20
871.778556
0
SEQEND
5
522
100
AcDbEntity
8
1
0
POLYLINE
5
523
100
AcDbEntity
8
1
6
CONTINUOUS
62
5
100
AcDb2dPolyline
66
1
10
0.0
20
0.0
30
0.0
70
0
0
VERTEX
5
524
100
AcDbEntity
8
1
100
AcDbVertex
100
AcDb2dVertex
62
5
10
356.316164
20
884.278556
0
VERTEX
5
525
100
AcDbEntity
8
1
100
AcDbVertex
100
AcDb2dVertex
62
5
10
350.816164
20
884.278556
0
VERTEX
5
526
100
AcDbEntity
8
1
100
AcDbVertex
100
AcDb2dVertex
62
5
10
350.616164
20
884.078556
0
VERTEX
5
527
100
AcDbEntity
8
1
100
AcDbVertex
100
AcDb2dVertex
62
5
10
350.616164
20
878.028556
0
SEQEND
5
528
100
AcDbEntity
8
1
0
POLYLINE
5
529
100
AcDbEntity
8
1
6
CONTINUOUS
62
5
100
AcDb2dPolyline
66
1
10
0.0
20
0.0
30
0.0
70
0
0
VERTEX
5
52a
100
AcDbEntity
8
1
100
AcDbVertex
100
AcDb2dVertex
62
5
10
376.359647
20
887.128556
0
VERTEX
5
52b
100
AcDbEntity
8
1
100
AcDbVertex
100
AcDb2dVertex
62
5
10
357.016164
20
887.128556
0
VERTEX
5
52c
100
AcDbEntity
8
1
100
AcDbVertex
100
AcDb2dVertex
62
5
10
357.016164
20
868.928556
0
SEQEND
5
52d
100
AcDbEntity
8
1
0
LINE
5
52e
100
AcDbEntity
8
1
100
AcDbLine
6
CONTINUOUS
62
5
10
358.016164
20
868.428556
11
358.016164
21
887.128556
0
POLYLINE
5
52f
100
AcDbEntity
8
1
6
CONTINUOUS
62
5
100
AcDb2dPolyline
66
1
10
0.0
20
0.0
30
0.0
70
0
0
VERTEX
5
530
100
AcDbEntity
8
1
100
AcDbVertex
100
AcDb2dVertex
62
5
10
357.016163
20
878.028556
0
VERTEX
5
531
100
AcDbEntity
8
1
100
AcDbVertex
100
AcDb2dVertex
62
5
10
357.016164
20
868.928556
0
VERTEX
5
532
100
AcDbEntity
8
1
100
AcDbVertex
100
AcDb2dVertex
62
5
10
356.816164
20
868.928556
0
VERTEX
5
533
100
AcDbEntity
8
1
100
AcDbVertex
100
AcDb2dVertex
62
5
10
356.816163
20
878.028556
0
SEQEND
5
534
100
AcDbEntity
8
1
0
LINE
5
535
100
AcDbEntity
8
1
100
AcDbLine
6
CONTINUOUS
62
5
10
356.340913
20
871.958304
11
356.340913
21
871.108304
0
POLYLINE
5
536
100
AcDbEntity
8
1
6
CONTINUOUS
62
5
100
AcDb2dPolyline
66
1
10
0.0
20
0.0
30
0.0
70
1
0
VERTEX
5
537
100
AcDbEntity
8
1
100
AcDbVertex
100
AcDb2dVertex
62
5
10
356.816164
20
871.958304
0
VERTEX
5
538
100
AcDbEntity
8
1
100
AcDbVertex
100
AcDb2dVertex
62
5
10
356.340913
20
871.958304
0
VERTEX
5
539
100
AcDbEntity
8
1
100
AcDbVertex
100
AcDb2dVertex
62
5
10
356.316164
20
871.933555
0
VERTEX
5
53a
100
AcDbEntity
8
1
100
AcDbVertex
100
AcDb2dVertex
62
5
10
356.316164
20
871.133053
0
VERTEX
5
53b
100
AcDbEntity
8
1
100
AcDbVertex
100
AcDb2dVertex
62
5
10
356.340913
20
871.108304
0
VERTEX
5
53c
100
AcDbEntity
8
1
100
AcDbVertex
100
AcDb2dVertex
62
5
10
356.816164
20
871.108304
0
VERTEX
5
53d
100
AcDbEntity
8
1
100
AcDbVertex
100
AcDb2dVertex
62
5
10
356.816164
20
871.958304
0
SEQEND
5
53e
100
AcDbEntity
8
1
0
ARC
5
53f
100
AcDbEntity
8
1
100
AcDbCircle
6
CONTINUOUS
62
5
10
401.216164
20
866.928556
40
0.300000
100
AcDbArc
50
0.000000
51
89.999999
0
POLYLINE
5
540
100
AcDbEntity
8
1
6
CONTINUOUS
62
5
100
AcDb2dPolyline
66
1
10
0.0
20
0.0
30
0.0
70
0
0
VERTEX
5
541
100
AcDbEntity
8
1
100
AcDbVertex
100
AcDb2dVertex
62
5
10
401.516164
20
866.928556
0
VERTEX
5
542
100
AcDbEntity
8
1
100
AcDbVertex
100
AcDb2dVertex
62
5
10
401.516164
20
864.828556
0
VERTEX
5
543
100
AcDbEntity
8
1
100
AcDbVertex
100
AcDb2dVertex
62
5
10
382.516164
20
864.828556
0
VERTEX
5
544
100
AcDbEntity
8
1
100
AcDbVertex
100
AcDb2dVertex
62
5
10
382.516164
20
865.828556
0
VERTEX
5
545
100
AcDbEntity
8
1
100
AcDbVertex
100
AcDb2dVertex
62
5
10
380.516164
20
865.828556
0
VERTEX
5
546
100
AcDbEntity
8
1
100
AcDbVertex
100
AcDb2dVertex
62
5
10
380.516164
20
864.828556
0
VERTEX
5
547
100
AcDbEntity
8
1
100
AcDbVertex
100
AcDb2dVertex
62
5
10
358.016164
20
864.828556
0
VERTEX
5
548
100
AcDbEntity
8
1
100
AcDbVertex
100
AcDb2dVertex
62
5
10
358.016164
20
868.428556
0
SEQEND
5
549
100
AcDbEntity
8
1
0
ARC
5
54a
100
AcDbEntity
8
1
100
AcDbCircle
6
CONTINUOUS
62
5
10
357.516164
20
868.428556
40
0.500000
100
AcDbArc
50
0.000000
51
89.999999
0
LINE
5
54b
100
AcDbEntity
8
1
100
AcDbLine
6
CONTINUOUS
62
5
10
357.516164
20
868.928556
11
357.016164
21
868.928556
0
LINE
5
54c
100
AcDbEntity
8
1
100
AcDbLine
6
CONTINUOUS
62
5
10
412.016164
20
870.034151
11
412.016164
21
877.350974
0
POLYLINE
5
54d
100
AcDbEntity
8
1
6
CONTINUOUS
62
5
100
AcDb2dPolyline
66
1
10
0.0
20
0.0
30
0.0
70
0
0
VERTEX
5
54e
100
AcDbEntity
8
1
100
AcDbVertex
100
AcDb2dVertex
62
5
10
358.016164
20
867.234151
0
VERTEX
5
54f
100
AcDbEntity
8
1
100
AcDbVertex
100
AcDb2dVertex
62
5
10
361.116164
20
867.228556
0
VERTEX
5
550
100
AcDbEntity
8
1
100
AcDbVertex
100
AcDb2dVertex
62
5
10
361.116164
20
867.528556
0
VERTEX
5
551
100
AcDbEntity
8
1
100
AcDbVertex
100
AcDb2dVertex
62
5
10
364.916164
20
867.528556
0
VERTEX
5
552
100
AcDbEntity
8
1
100
AcDbVertex
100
AcDb2dVertex
62
5
10
364.916164
20
867.228556
0
VERTEX
5
553
100
AcDbEntity
8
1
100
AcDbVertex
100
AcDb2dVertex
62
5
10
395.116164
20
867.228556
0
VERTEX
5
554
100
AcDbEntity
8
1
100
AcDbVertex
100
AcDb2dVertex
62
5
10
395.116164
20
867.528556
0
VERTEX
5
555
100
AcDbEntity
8
1
100
AcDbVertex
100
AcDb2dVertex
62
5
10
398.916164
20
867.528556
0
VERTEX
5
556
100
AcDbEntity
8
1
100
AcDbVertex
100
AcDb2dVertex
62
5
10
398.916164
20
867.228556
0
VERTEX
5
557
100
AcDbEntity
8
1
100
AcDbVertex
100
AcDb2dVertex
62
5
10
401.216164
20
867.228556
0
SEQEND
5
558
100
AcDbEntity
8
1
0
ARC
5
559
100
AcDbEntity
8
1
100
AcDbCircle
6
CONTINUOUS
62
5
10
411.516164
20
870.034151
40
0.500000
100
AcDbArc
50
-89.999999
51
0.000000
0
LINE
5
55a
100
AcDbEntity
8
1
100
AcDbLine
6
CONTINUOUS
62
5
10
412.016164
20
870.034151
11
412.016164
21
877.528556
0
ARC
5
55b
100
AcDbEntity
8
1
100
AcDbCircle
6
CONTINUOUS
62
5
10
411.516164
20
877.528556
40
0.500000
100
AcDbArc
50
0.000000
51
89.999999
0
POLYLINE
5
55c
100
AcDbEntity
8
1
6
CONTINUOUS
62
5
100
AcDb2dPolyline
66
1
10
0.0
20
0.0
30
0.0
70
0
0
VERTEX
5
55d
100
AcDbEntity
8
1
100
AcDbVertex
100
AcDb2dVertex
62
5
10
411.516164
20
878.028556
0
VERTEX
5
55e
100
AcDbEntity
8
1
100
AcDbVertex
100
AcDb2dVertex
62
5
10
377.309647
20
878.028556
0
VERTEX
5
55f
100
AcDbEntity
8
1
100
AcDbVertex
100
AcDb2dVertex
62
5
10
377.309647
20
879.028556
0
SEQEND
5
560
100
AcDbEntity
8
1
0
LINE
5
561
100
AcDbEntity
8
1
100
AcDbLine
6
DOT2
62
5
10
348.116164
20
951.109876
11
348.116164
21
945.109876
0
LINE
5
562
100
AcDbEntity
8
1
100
AcDbLine
6
CONTINUOUS
62
5
10
348.116164
20
951.209876
11
348.116164
21
945.009876
0
POLYLINE
5
563
100
AcDbEntity
8
1
6
CONTINUOUS
62
5
100
AcDb2dPolyline
66
1
10
0.0
20
0.0
30
0.0
70
0
0
VERTEX
5
564
100
AcDbEntity
8
1
100
AcDbVertex
100
AcDb2dVertex
62
5
10
348.116164
20
945.109876
0
VERTEX
5
565
100
AcDbEntity
8
1
100
AcDbVertex
100
AcDb2dVertex
62
5
10
348.016164
20
945.209876
0
VERTEX
5
566
100
AcDbEntity
8
1
100
AcDbVertex
100
AcDb2dVertex
62
5
10
348.016164
20
951.009876
0
VERTEX
5
567
100
AcDbEntity
8
1
100
AcDbVertex
100
AcDb2dVertex
62
5
10
348.116164
20
951.109876
0
SEQEND
5
568
100
AcDbEntity
8
1
0
LINE
5
569
100
AcDbEntity
8
1
100
AcDbLine
6
CONTINUOUS
62
5
10
348.116164
20
881.128556
11
348.116164
21
874.928556
0
LINE
5
56a
100
AcDbEntity
8
1
100
AcDbLine
6
DOT2
62
5
10
348.116164
20
881.028556
11
348.116164
21
875.028556
0
POLYLINE
5
56b
100
AcDbEntity
8
1
6
CONTINUOUS
62
5
100
AcDb2dPolyline
66
1
10
0.0
20
0.0
30
0.0
70
0
0
VERTEX
5
56c
100
AcDbEntity
8
1
100
AcDbVertex
100
AcDb2dVertex
62
5
10
348.116164
20
875.028556
0
VERTEX
5
56d
100
AcDbEntity
8
1
100
AcDbVertex
100
AcDb2dVertex
62
5
10
348.016164
20
875.128556
0
VERTEX
5
56e
100
AcDbEntity
8
1
100
AcDbVertex
100
AcDb2dVertex
62
5
10
348.016164
20
880.928556
0
VERTEX
5
56f
100
AcDbEntity
8
1
100
AcDbVertex
100
AcDb2dVertex
62
5
10
348.116164
20
881.028556
0
SEQEND
5
570
100
AcDbEntity
8
1
0
LINE
5
571
100
AcDbEntity
8
1
100
AcDbLine
6
DIVIDE
62
5
10
331.871653
20
881.778556
11
331.871653
21
874.278556
0
POLYLINE
5
572
100
AcDbEntity
8
1
6
DIVIDE
62
5
100
AcDb2dPolyline
66
1
10
0.0
20
0.0
30
0.0
70
0
0
VERTEX
5
573
100
AcDbEntity
8
1
100
AcDbVertex
100
AcDb2dVertex
62
5
10
330.671653
20
875.028556
0
VERTEX
5
574
100
AcDbEntity
8
1
100
AcDbVertex
100
AcDb2dVertex
62
5
10
330.571653
20
875.128556
0
VERTEX
5
575
100
AcDbEntity
8
1
100
AcDbVertex
100
AcDb2dVertex
62
5
10
330.571653
20
880.928556
0
VERTEX
5
576
100
AcDbEntity
8
1
100
AcDbVertex
100
AcDb2dVertex
62
5
10
330.671653
20
881.028556
0
SEQEND
5
577
100
AcDbEntity
8
1
0
LINE
5
578
100
AcDbEntity
8
1
100
AcDbLine
6
DIVIDE
62
5
10
330.671653
20
881.028556
11
330.671653
21
875.028556
0
LINE
5
579
100
AcDbEntity
8
1
100
AcDbLine
6
DIVIDE
62
5
10
330.671653
20
881.128556
11
330.671653
21
874.928556
0
POLYLINE
5
57a
100
AcDbEntity
8
1
6
DIVIDE
62
5
100
AcDb2dPolyline
66
1
10
0.0
20
0.0
30
0.0
70
0
0
VERTEX
5
57b
100
AcDbEntity
8
1
100
AcDbVertex
100
AcDb2dVertex
62
5
10
333.171653
20
873.128556
0
VERTEX
5
57c
100
AcDbEntity
8
1
100
AcDbVertex
100
AcDb2dVertex
62
5
10
333.071653
20
873.028556
0
VERTEX
5
57d
100
AcDbEntity
8
1
100
AcDbVertex
100
AcDb2dVertex
62
5
10
331.971653
20
873.028556
0
VERTEX
5
57e
100
AcDbEntity
8
1
100
AcDbVertex
100
AcDb2dVertex
62
5
10
331.871653
20
873.128556
0
VERTEX
5
57f
100
AcDbEntity
8
1
100
AcDbVertex
100
AcDb2dVertex
62
5
10
331.871653
20
874.278556
0
VERTEX
5
580
100
AcDbEntity
8
1
100
AcDbVertex
100
AcDb2dVertex
62
5
10
330.771653
20
874.278556
0
VERTEX
5
581
100
AcDbEntity
8
1
100
AcDbVertex
100
AcDb2dVertex
62
5
10
330.671653
20
874.378556
0
VERTEX
5
582
100
AcDbEntity
8
1
100
AcDbVertex
100
AcDb2dVertex
62
5
10
330.671653
20
874.928556
0
SEQEND
5
583
100
AcDbEntity
8
1
0
POLYLINE
5
584
100
AcDbEntity
8
1
6
DIVIDE
62
5
100
AcDb2dPolyline
66
1
10
0.0
20
0.0
30
0.0
70
0
0
VERTEX
5
585
100
AcDbEntity
8
1
100
AcDbVertex
100
AcDb2dVertex
62
5
10
333.171653
20
878.028556
0
VERTEX
5
586
100
AcDbEntity
8
1
100
AcDbVertex
100
AcDb2dVertex
62
5
10
333.171653
20
882.928556
0
VERTEX
5
587
100
AcDbEntity
8
1
100
AcDbVertex
100
AcDb2dVertex
62
5
10
333.071653
20
883.028556
0
VERTEX
5
588
100
AcDbEntity
8
1
100
AcDbVertex
100
AcDb2dVertex
62
5
10
331.971653
20
883.028556
0
VERTEX
5
589
100
AcDbEntity
8
1
100
AcDbVertex
100
AcDb2dVertex
62
5
10
331.871653
20
882.928556
0
VERTEX
5
58a
100
AcDbEntity
8
1
100
AcDbVertex
100
AcDb2dVertex
62
5
10
331.871653
20
881.778556
0
VERTEX
5
58b
100
AcDbEntity
8
1
100
AcDbVertex
100
AcDb2dVertex
62
5
10
330.771653
20
881.778556
0
VERTEX
5
58c
100
AcDbEntity
8
1
100
AcDbVertex
100
AcDb2dVertex
62
5
10
330.671653
20
881.678556
0
VERTEX
5
58d
100
AcDbEntity
8
1
100
AcDbVertex
100
AcDb2dVertex
62
5
10
330.671653
20
881.128556
0
SEQEND
5
58e
100
AcDbEntity
8
1
0
LINE
5
58f
100
AcDbEntity
8
1
100
AcDbLine
6
CONTINUOUS
62
5
10
293.850082
20
909.134176
11
293.850082
21
910.628556
0
LINE
5
590
100
AcDbEntity
8
6
100
AcDbLine
6
CONTINUOUS
62
5
10
296.220068
20
903.423487
11
296.220068
21
899.913600
0
LINE
5
591
100
AcDbEntity
8
6
100
AcDbLine
6
CONTINUOUS
62
5
10
296.120092
20
903.473487
11
296.120092
21
899.863624
0
ARC
5
592
100
AcDbEntity
8
6
100
AcDbCircle
6
CONTINUOUS
62
5
10
296.170092
20
899.913624
40
0.050000
100
AcDbArc
50
-90.000239
51
-0.000030
0
LINE
5
593
100
AcDbEntity
8
6
100
AcDbLine
6
CONTINUOUS
62
5
10
296.120092
20
899.863624
11
296.170092
21
899.863624
0
LINE
5
594
100
AcDbEntity
8
6
100
AcDbLine
6
CONTINUOUS
62
5
10
296.119848
20
899.863477
11
296.019848
21
899.763477
0
LINE
5
595
100
AcDbEntity
8
6
100
AcDbLine
6
CONTINUOUS
62
5
10
294.301712
20
899.763575
11
296.020117
21
899.763575
0
LINE
5
596
100
AcDbEntity
8
6
100
AcDbLine
6
CONTINUOUS
62
5
10
293.850082
20
899.485621
11
294.120165
21
899.485621
0
LINE
5
597
100
AcDbEntity
8
6
100
AcDbLine
6
CONTINUOUS
62
5
10
293.850082
20
899.485621
11
293.850082
21
900.128625
0
LINE
5
598
100
AcDbEntity
8
6
100
AcDbLine
6
CONTINUOUS
62
5
10
293.850082
20
899.368557
11
293.850082
21
900.874818
0
LINE
5
599
100
AcDbEntity
8
6
100
AcDbLine
6
CONTINUOUS
62
5
10
293.850082
20
899.368557
11
293.850082
21
900.128625
0
LINE
5
59a
100
AcDbEntity
8
6
100
AcDbLine
6
CONTINUOUS
62
5
10
293.800082
20
899.318557
11
293.850082
21
899.368557
0
LINE
5
59b
100
AcDbEntity
8
6
100
AcDbLine
6
CONTINUOUS
62
5
10
294.120092
20
900.198634
11
294.120092
21
899.648658
0
LINE
5
59c
100
AcDbEntity
8
6
100
AcDbLine
6
CONTINUOUS
62
5
10
294.120092
20
900.198634
11
294.120092
21
899.648658
0
LINE
5
59d
100
AcDbEntity
8
6
100
AcDbLine
6
CONTINUOUS
62
5
10
294.120092
20
899.648658
11
294.193993
21
899.648658
0
ARC
5
59e
100
AcDbEntity
8
6
100
AcDbCircle
6
CONTINUOUS
62
5
10
293.620263
20
899.923658
40
0.700000
100
AcDbArc
50
-16.957794
51
16.957470
0
ARC
5
59f
100
AcDbEntity
8
6
100
AcDbCircle
6
CONTINUOUS
62
5
10
294.194189
20
899.748658
40
0.100000
100
AcDbArc
50
-90.001219
51
-16.957199
0
LINE
5
5a0
100
AcDbEntity
8
6
100
AcDbLine
6
CONTINUOUS
62
5
10
294.120092
20
900.874818
11
294.120092
21
899.485621
0
LINE
5
5a1
100
AcDbEntity
8
6
100
AcDbLine
6
CONTINUOUS
62
5
10
294.330126
20
900.874818
11
294.330126
21
899.863624
0
LINE
5
5a2
100
AcDbEntity
8
6
100
AcDbLine
6
CONTINUOUS
62
5
10
292.555082
20
900.201056
11
292.455082
21
900.086463
0
LINE
5
5a3
100
AcDbEntity
8
6
100
AcDbLine
6
CONTINUOUS
62
5
10
292.850082
20
899.518557
11
292.850082
21
900.368556
0
ARC
5
5a4
100
AcDbEntity
8
6
100
AcDbCircle
6
CONTINUOUS
62
5
10
292.650082
20
899.518557
40
0.200000
100
AcDbArc
50
-89.999999
51
0.000000
0
LINE
5
5a5
100
AcDbEntity
8
6
100
AcDbLine
6
CONTINUOUS
62
5
10
293.800082
20
899.318557
11
293.016749
21
899.318557
0
ARC
5
5a6
100
AcDbEntity
8
6
100
AcDbCircle
6
CONTINUOUS
62
5
10
293.016749
20
898.818557
40
0.500000
100
AcDbArc
50
89.999999
51
126.869927
0
ARC
5
5a7
100
AcDbEntity
8
6
100
AcDbCircle
6
CONTINUOUS
62
5
10
296.170092
20
903.423512
40
0.050000
100
AcDbArc
50
-0.000030
51
90.000019
0
LINE
5
5a8
100
AcDbEntity
8
6
100
AcDbLine
6
CONTINUOUS
62
5
10
296.120092
20
903.473487
11
296.170092
21
903.473487
0
LINE
5
5a9
100
AcDbEntity
8
6
100
AcDbLine
6
CONTINUOUS
62
5
10
296.019750
20
903.573609
11
296.119824
21
903.473536
0
LINE
5
5aa
100
AcDbEntity
8
6
100
AcDbLine
6
CONTINUOUS
62
5
10
294.301735
20
903.573438
11
296.020117
21
903.573438
0
LINE
5
5ab
100
AcDbEntity
8
6
100
AcDbLine
6
CONTINUOUS
62
5
10
293.850082
20
903.851466
11
293.850082
21
902.462311
0
LINE
5
5ac
100
AcDbEntity
8
6
100
AcDbLine
6
CONTINUOUS
62
5
10
294.418149
20
902.462311
11
293.282179
21
902.462311
0
LINE
5
5ad
100
AcDbEntity
8
6
100
AcDbLine
6
CONTINUOUS
62
5
10
294.120092
20
903.138453
11
294.193993
21
903.138453
0
LINE
5
5ae
100
AcDbEntity
8
6
100
AcDbLine
6
CONTINUOUS
62
5
10
294.120092
20
903.688453
11
294.120092
21
903.138453
0
LINE
5
5af
100
AcDbEntity
8
6
100
AcDbLine
6
CONTINUOUS
62
5
10
294.120092
20
903.688453
11
294.120092
21
903.138453
0
ARC
5
5b0
100
AcDbEntity
8
6
100
AcDbCircle
6
CONTINUOUS
62
5
10
294.194189
20
903.238453
40
0.100000
100
AcDbArc
50
-90.000979
51
-16.956985
0
LINE
5
5b1
100
AcDbEntity
8
6
100
AcDbLine
6
CONTINUOUS
62
5
10
294.120092
20
903.851466
11
294.120092
21
902.462311
0
LINE
5
5b2
100
AcDbEntity
8
6
100
AcDbLine
6
CONTINUOUS
62
5
10
294.330126
20
903.473487
11
294.330126
21
902.462311
0
LINE
5
5b3
100
AcDbEntity
8
6
100
AcDbLine
6
CONTINUOUS
62
5
10
294.418123
20
902.462294
11
294.518134
21
902.362288
0
LINE
5
5b4
100
AcDbEntity
8
6
100
AcDbLine
6
CONTINUOUS
62
5
10
292.455082
20
903.236463
11
292.555082
21
903.136056
0
LINE
5
5b5
100
AcDbEntity
8
6
100
AcDbLine
6
CONTINUOUS
62
5
10
292.850082
20
903.818555
11
292.850082
21
902.968556
0
LINE
5
5b6
100
AcDbEntity
8
6
100
AcDbLine
6
CONTINUOUS
62
5
10
293.090120
20
902.293573
11
293.090120
21
902.843573
0
LINE
5
5b7
100
AcDbEntity
8
6
100
AcDbLine
6
CONTINUOUS
62
5
10
293.090120
20
902.293573
11
293.090120
21
902.843573
0
ARC
5
5b8
100
AcDbEntity
8
6
100
AcDbCircle
6
CONTINUOUS
62
5
10
292.590291
20
902.568573
40
0.700000
100
AcDbArc
50
-17.101900
51
16.957474
0
LINE
5
5b9
100
AcDbEntity
8
6
100
AcDbLine
6
CONTINUOUS
62
5
10
293.090120
20
902.968567
11
292.850130
21
902.968554
0
ARC
5
5ba
100
AcDbEntity
8
6
100
AcDbCircle
6
CONTINUOUS
62
5
10
293.164217
20
902.743573
40
0.100000
100
AcDbArc
50
16.956985
51
90.000979
0
LINE
5
5bb
100
AcDbEntity
8
6
100
AcDbLine
6
CONTINUOUS
62
5
10
293.090120
20
902.843573
11
293.164022
21
902.843573
0
LINE
5
5bc
100
AcDbEntity
8
6
100
AcDbLine
6
CONTINUOUS
62
5
10
292.850130
20
902.968556
11
292.555082
21
902.968556
0
LINE
5
5bd
100
AcDbEntity
8
6
100
AcDbLine
6
CONTINUOUS
62
5
10
292.555082
20
903.136056
11
292.555082
21
900.201056
0
LINE
5
5be
100
AcDbEntity
8
6
100
AcDbLine
6
CONTINUOUS
62
5
10
293.345120
20
902.462311
11
293.345120
21
900.874818
0
LINE
5
5bf
100
AcDbEntity
8
6
100
AcDbLine
6
CONTINUOUS
62
5
10
293.090120
20
902.968554
11
293.090120
21
900.368557
0
LINE
5
5c0
100
AcDbEntity
8
6
100
AcDbLine
6
CONTINUOUS
62
5
10
292.850130
20
900.368556
11
292.850130
21
902.968556
0
LINE
5
5c1
100
AcDbEntity
8
6
100
AcDbLine
6
CONTINUOUS
62
5
10
293.090120
20
902.293573
11
293.164022
21
902.293573
0
ARC
5
5c2
100
AcDbEntity
8
6
100
AcDbCircle
6
CONTINUOUS
62
5
10
293.164217
20
902.393573
40
0.100000
100
AcDbArc
50
-90.001049
51
-16.957200
0
LINE
5
5c3
100
AcDbEntity
8
6
100
AcDbLine
6
CONTINUOUS
62
5
10
294.418149
20
900.874818
11
293.282181
21
900.874818
0
LINE
5
5c4
100
AcDbEntity
8
6
100
AcDbLine
6
CONTINUOUS
62
5
10
294.120092
20
900.198634
11
294.193993
21
900.198634
0
ARC
5
5c5
100
AcDbEntity
8
6
100
AcDbCircle
6
CONTINUOUS
62
5
10
294.194189
20
900.098683
40
0.100000
100
AcDbArc
50
16.956990
51
90.000949
0
LINE
5
5c6
100
AcDbEntity
8
6
100
AcDbLine
6
CONTINUOUS
62
5
10
294.518103
20
900.974829
11
294.418114
21
900.874839
0
LINE
5
5c7
100
AcDbEntity
8
6
100
AcDbLine
6
CONTINUOUS
62
5
10
292.850130
20
900.368556
11
292.850130
21
900.368562
0
LINE
5
5c8
100
AcDbEntity
8
6
100
AcDbLine
6
CONTINUOUS
62
5
10
293.090120
20
900.493569
11
293.090120
21
901.043569
0
LINE
5
5c9
100
AcDbEntity
8
6
100
AcDbLine
6
CONTINUOUS
62
5
10
293.090120
20
900.493569
11
293.090120
21
901.043569
0
ARC
5
5ca
100
AcDbEntity
8
6
100
AcDbCircle
6
CONTINUOUS
62
5
10
292.590291
20
900.768569
40
0.700000
100
AcDbArc
50
-17.101900
51
16.957474
0
LINE
5
5cb
100
AcDbEntity
8
6
100
AcDbLine
6
CONTINUOUS
62
5
10
293.090120
20
900.368562
11
292.850130
21
900.368562
0
ARC
5
5cc
100
AcDbEntity
8
6
100
AcDbCircle
6
CONTINUOUS
62
5
10
293.164217
20
900.593569
40
0.100000
100
AcDbArc
50
-90.001049
51
-16.957200
0
LINE
5
5cd
100
AcDbEntity
8
6
100
AcDbLine
6
CONTINUOUS
62
5
10
293.090120
20
900.493569
11
293.164022
21
900.493569
0
LINE
5
5ce
100
AcDbEntity
8
6
100
AcDbLine
6
CONTINUOUS
62
5
10
293.090120
20
901.043569
11
293.164022
21
901.043569
0
ARC
5
5cf
100
AcDbEntity
8
6
100
AcDbCircle
6
CONTINUOUS
62
5
10
293.164217
20
900.943569
40
0.100000
100
AcDbArc
50
16.956985
51
90.000979
0
LINE
5
5d0
100
AcDbEntity
8
6
100
AcDbLine
6
CONTINUOUS
62
5
10
292.850130
20
900.368556
11
292.555082
21
900.368556
0
LINE
5
5d1
100
AcDbEntity
8
6
100
AcDbLine
6
CONTINUOUS
62
5
10
294.518120
20
902.362305
11
294.518120
21
900.974807
0
LINE
5
5d2
100
AcDbEntity
8
6
100
AcDbLine
6
CONTINUOUS
62
5
10
293.850082
20
903.851466
11
294.120165
21
903.851466
0
LINE
5
5d3
100
AcDbEntity
8
6
100
AcDbLine
6
CONTINUOUS
62
5
10
293.850082
20
903.968555
11
293.850082
21
903.198464
0
LINE
5
5d4
100
AcDbEntity
8
6
100
AcDbLine
6
CONTINUOUS
62
5
10
293.800082
20
904.018555
11
293.850082
21
903.968555
0
LINE
5
5d5
100
AcDbEntity
8
6
100
AcDbLine
6
CONTINUOUS
62
5
10
293.800082
20
904.018555
11
293.016749
21
904.018555
0
LINE
5
5d6
100
AcDbEntity
8
6
100
AcDbLine
6
CONTINUOUS
62
5
10
294.120092
20
903.688453
11
294.193993
21
903.688453
0
ARC
5
5d7
100
AcDbEntity
8
6
100
AcDbCircle
6
CONTINUOUS
62
5
10
293.620263
20
903.413453
40
0.700000
100
AcDbArc
50
-16.957474
51
16.957810
0
ARC
5
5d8
100
AcDbEntity
8
6
100
AcDbCircle
6
CONTINUOUS
62
5
10
294.194189
20
903.588453
40
0.100000
100
AcDbArc
50
16.957200
51
90.001049
0
ARC
5
5d9
100
AcDbEntity
8
6
100
AcDbCircle
6
CONTINUOUS
62
5
10
292.650082
20
903.818555
40
0.200000
100
AcDbArc
50
0.000000
51
89.999999
0
ARC
5
5da
100
AcDbEntity
8
6
100
AcDbCircle
6
CONTINUOUS
62
5
10
293.016749
20
904.518555
40
0.500000
100
AcDbArc
50
-126.869927
51
-89.999999
0
CIRCLE
5
5db
100
AcDbEntity
8
6
100
AcDbCircle
6
CONTINUOUS
62
5
10
290.050082
20
905.068556
40
0.475000
0
CIRCLE
5
5dc
100
AcDbEntity
8
6
100
AcDbCircle
6
CONTINUOUS
62
5
10
290.050082
20
905.068556
40
0.375000
0
LINE
5
5dd
100
AcDbEntity
8
6
100
AcDbLine
6
CONTINUOUS
62
5
10
290.165552
20
905.268556
11
290.281022
21
905.068556
0
LINE
5
5de
100
AcDbEntity
8
6
100
AcDbLine
6
CONTINUOUS
62
5
10
290.281022
20
905.068556
11
290.165552
21
904.868556
0
LINE
5
5df
100
AcDbEntity
8
6
100
AcDbLine
6
CONTINUOUS
62
5
10
289.934612
20
904.868556
11
290.165552
21
904.868556
0
LINE
5
5e0
100
AcDbEntity
8
6
100
AcDbLine
6
CONTINUOUS
62
5
10
289.934612
20
905.268556
11
289.819142
21
905.068556
0
LINE
5
5e1
100
AcDbEntity
8
6
100
AcDbLine
6
CONTINUOUS
62
5
10
289.819142
20
905.068556
11
289.934612
21
904.868556
0
LINE
5
5e2
100
AcDbEntity
8
6
100
AcDbLine
6
CONTINUOUS
62
5
10
291.483415
20
904.918556
11
290.850082
21
904.918556
0
ARC
5
5e3
100
AcDbEntity
8
6
100
AcDbCircle
6
CONTINUOUS
62
5
10
291.150082
20
904.818556
40
0.100000
100
AcDbArc
50
0.000000
51
89.999999
0
LINE
5
5e4
100
AcDbEntity
8
6
100
AcDbLine
6
CONTINUOUS
62
5
10
291.250082
20
904.868556
11
291.250082
21
904.168556
0
LINE
5
5e5
100
AcDbEntity
8
6
100
AcDbLine
6
CONTINUOUS
62
5
10
291.250082
20
904.868556
11
291.250082
21
904.168556
0
LINE
5
5e6
100
AcDbEntity
8
6
100
AcDbLine
6
CONTINUOUS
62
5
10
291.250082
20
904.818556
11
291.250082
21
904.118555
0
LINE
5
5e7
100
AcDbEntity
8
6
100
AcDbLine
6
CONTINUOUS
62
5
10
290.850082
20
903.236463
11
290.850082
21
906.749156
0
LINE
5
5e8
100
AcDbEntity
8
6
100
AcDbLine
6
CONTINUOUS
62
5
10
290.350080
20
897.468556
11
289.668930
21
897.468556
0
ARC
5
5e9
100
AcDbEntity
8
6
100
AcDbCircle
6
CONTINUOUS
62
5
10
289.668930
20
896.668556
40
0.800000
100
AcDbArc
50
90.000029
51
136.769805
0
LINE
5
5ea
100
AcDbEntity
8
6
100
AcDbLine
6
CONTINUOUS
62
5
10
290.350082
20
903.668556
11
290.350082
21
899.668556
0
LINE
5
5eb
100
AcDbEntity
8
6
100
AcDbLine
6
CONTINUOUS
62
5
10
290.350082
20
903.573576
11
290.350082
21
899.758556
0
LINE
5
5ec
100
AcDbEntity
8
6
100
AcDbLine
6
CONTINUOUS
62
5
10
290.350082
20
903.578556
11
290.350082
21
899.768556
0
LINE
5
5ed
100
AcDbEntity
8
6
100
AcDbLine
6
CONTINUOUS
62
5
10
290.650082
20
899.763536
11
290.350082
21
899.763536
0
LINE
5
5ee
100
AcDbEntity
8
6
100
AcDbLine
6
CONTINUOUS
62
5
10
290.350080
20
897.468556
11
290.850080
21
897.968556
0
LINE
5
5ef
100
AcDbEntity
8
6
100
AcDbLine
6
CONTINUOUS
62
5
10
290.650082
20
903.573576
11
290.350082
21
903.573576
0
LINE
5
5f0
100
AcDbEntity
8
6
100
AcDbLine
6
CONTINUOUS
62
5
10
290.650082
20
899.763576
11
290.650082
21
903.243576
0
ARC
5
5f1
100
AcDbEntity
8
6
100
AcDbCircle
6
CONTINUOUS
62
5
10
290.150082
20
900.200538
40
0.700000
100
AcDbArc
50
-16.957794
51
16.957540
0
LINE
5
5f2
100
AcDbEntity
8
6
100
AcDbLine
6
CONTINUOUS
62
5
10
290.650082
20
900.475562
11
290.650082
21
899.925587
0
ARC
5
5f3
100
AcDbEntity
8
6
100
AcDbCircle
6
CONTINUOUS
62
5
10
290.723934
20
900.025562
40
0.100000
100
AcDbArc
50
-90.001219
51
-16.957260
0
LINE
5
5f4
100
AcDbEntity
8
6
100
AcDbLine
6
CONTINUOUS
62
5
10
290.650057
20
899.925611
11
290.723959
21
899.925611
0
LINE
5
5f5
100
AcDbEntity
8
6
100
AcDbLine
6
CONTINUOUS
62
5
10
290.850082
20
897.968556
11
290.850082
21
900.086463
0
LINE
5
5f6
100
AcDbEntity
8
6
100
AcDbLine
6
CONTINUOUS
62
5
10
290.850082
20
896.587956
11
290.850082
21
899.668556
0
ARC
5
5f7
100
AcDbEntity
8
6
100
AcDbCircle
6
CONTINUOUS
62
5
10
291.350082
20
899.218557
40
0.100000
100
AcDbArc
50
89.999999
51
179.999998
0
ARC
5
5f8
100
AcDbEntity
8
6
100
AcDbCircle
6
CONTINUOUS
62
5
10
291.150082
20
898.518556
40
0.100000
100
AcDbArc
50
-89.999999
51
0.000000
0
LINE
5
5f9
100
AcDbEntity
8
6
100
AcDbLine
6
CONTINUOUS
62
5
10
291.483415
20
898.418556
11
290.850082
21
898.418556
0
LINE
5
5fa
100
AcDbEntity
8
6
100
AcDbLine
6
CONTINUOUS
62
5
10
291.250082
20
898.468556
11
291.250082
21
899.168556
0
LINE
5
5fb
100
AcDbEntity
8
6
100
AcDbLine
6
CONTINUOUS
62
5
10
291.250082
20
898.468556
11
291.250082
21
899.168556
0
LINE
5
5fc
100
AcDbEntity
8
6
100
AcDbLine
6
CONTINUOUS
62
5
10
291.250082
20
898.518556
11
291.250082
21
899.218557
0
ARC
5
5fd
100
AcDbEntity
8
6
100
AcDbCircle
6
CONTINUOUS
62
5
10
290.150106
20
903.136573
40
0.700000
100
AcDbArc
50
-16.957794
51
16.957540
0
ARC
5
5fe
100
AcDbEntity
8
6
100
AcDbCircle
6
CONTINUOUS
62
5
10
290.723959
20
902.961524
40
0.100000
100
AcDbArc
50
-90.001219
51
-16.957260
0
LINE
5
5ff
100
AcDbEntity
8
6
100
AcDbLine
6
CONTINUOUS
62
5
10
290.650082
20
902.861549
11
290.723983
21
902.861549
0
LINE
5
600
100
AcDbEntity
8
6
100
AcDbLine
6
CONTINUOUS
62
5
10
290.782051
20
900.456892
11
290.782051
21
902.880128
0
ARC
5
601
100
AcDbEntity
8
6
100
AcDbCircle
6
CONTINUOUS
62
5
10
290.723934
20
900.375514
40
0.100000
100
AcDbArc
50
16.957090
51
90.001049
0
LINE
5
602
100
AcDbEntity
8
6
100
AcDbLine
6
CONTINUOUS
62
5
10
290.650057
20
900.475562
11
290.723959
21
900.475562
0
ARC
5
603
100
AcDbEntity
8
6
100
AcDbCircle
6
CONTINUOUS
62
5
10
291.350082
20
904.118555
40
0.100000
100
AcDbArc
50
179.999998
51
-89.999999
0
LINE
5
604
100
AcDbEntity
8
6
100
AcDbLine
6
CONTINUOUS
62
5
10
290.650082
20
903.573576
11
290.650082
21
903.243576
0
ARC
5
605
100
AcDbEntity
8
6
100
AcDbCircle
6
CONTINUOUS
62
5
10
290.724008
20
903.311549
40
0.100000
100
AcDbArc
50
16.957090
51
90.001049
0
LINE
5
606
100
AcDbEntity
8
6
100
AcDbLine
6
CONTINUOUS
62
5
10
290.650082
20
903.411524
11
290.723983
21
903.411524
0
LINE
5
607
100
AcDbEntity
8
6
100
AcDbLine
6
CONTINUOUS
62
5
10
290.350082
20
905.868556
11
289.668905
21
905.868556
0
ARC
5
608
100
AcDbEntity
8
6
100
AcDbCircle
6
CONTINUOUS
62
5
10
289.668917
20
906.668556
40
0.800000
100
AcDbArc
50
-136.769778
51
-89.999999
0
LINE
5
609
100
AcDbEntity
8
6
100
AcDbLine
6
CONTINUOUS
62
5
10
289.934612
20
905.268556
11
290.165552
21
905.268556
0
LINE
5
60a
100
AcDbEntity
8
6
100
AcDbLine
6
CONTINUOUS
62
5
10
290.350082
20
905.868556
11
290.850082
21
905.368556
0
LINE
5
60b
100
AcDbEntity
8
6
100
AcDbLine
6
CONTINUOUS
62
5
10
291.620083
20
904.868556
11
291.650082
21
904.816603
0
LINE
5
60c
100
AcDbEntity
8
6
100
AcDbLine
6
CONTINUOUS
62
5
10
291.620083
20
904.868556
11
291.650082
21
904.816603
0
LINE
5
60d
100
AcDbEntity
8
6
100
AcDbLine
6
CONTINUOUS
62
5
10
291.620083
20
904.868556
11
291.620083
21
904.168556
0
LINE
5
60e
100
AcDbEntity
8
6
100
AcDbLine
6
CONTINUOUS
62
5
10
291.650082
20
904.816603
11
291.650082
21
904.220509
0
LINE
5
60f
100
AcDbEntity
8
6
100
AcDbLine
6
CONTINUOUS
62
5
10
291.620083
20
904.868556
11
291.620083
21
904.168556
0
LINE
5
610
100
AcDbEntity
8
6
100
AcDbLine
6
CONTINUOUS
62
5
10
291.650082
20
904.816603
11
291.650082
21
904.220509
0
LINE
5
611
100
AcDbEntity
8
6
100
AcDbLine
6
CONTINUOUS
62
5
10
291.783415
20
904.818555
11
292.716749
21
904.118555
0
ARC
5
612
100
AcDbEntity
8
6
100
AcDbCircle
6
CONTINUOUS
62
5
10
291.483415
20
904.418556
40
0.500000
100
AcDbArc
50
53.130071
51
89.999999
0
LINE
5
613
100
AcDbEntity
8
6
100
AcDbLine
6
CONTINUOUS
62
5
10
291.250082
20
904.868556
11
291.620083
21
904.868556
0
LINE
5
614
100
AcDbEntity
8
6
100
AcDbLine
6
CONTINUOUS
62
5
10
291.250082
20
904.868556
11
291.620083
21
904.868556
0
LINE
5
615
100
AcDbEntity
8
6
100
AcDbLine
6
CONTINUOUS
62
5
10
291.650082
20
899.518557
11
291.650082
21
900.086463
0
ARC
5
616
100
AcDbEntity
8
6
100
AcDbCircle
6
CONTINUOUS
62
5
10
291.450082
20
899.518557
40
0.200000
100
AcDbArc
50
-89.999999
51
0.000000
0
LINE
5
617
100
AcDbEntity
8
6
100
AcDbLine
6
CONTINUOUS
62
5
10
290.831862
20
900.086463
11
292.455082
21
900.086463
0
LINE
5
618
100
AcDbEntity
8
6
100
AcDbLine
6
CONTINUOUS
62
5
10
291.650082
20
899.116603
11
291.620083
21
899.168556
0
LINE
5
619
100
AcDbEntity
8
6
100
AcDbLine
6
CONTINUOUS
62
5
10
291.650082
20
899.116603
11
291.620083
21
899.168556
0
LINE
5
61a
100
AcDbEntity
8
6
100
AcDbLine
6
CONTINUOUS
62
5
10
291.620083
20
898.468556
11
291.650082
21
898.520509
0
LINE
5
61b
100
AcDbEntity
8
6
100
AcDbLine
6
CONTINUOUS
62
5
10
291.620083
20
898.468556
11
291.650082
21
898.520509
0
LINE
5
61c
100
AcDbEntity
8
6
100
AcDbLine
6
CONTINUOUS
62
5
10
291.620083
20
898.468556
11
291.620083
21
899.168556
0
LINE
5
61d
100
AcDbEntity
8
6
100
AcDbLine
6
CONTINUOUS
62
5
10
291.650082
20
898.520509
11
291.650082
21
899.116603
0
LINE
5
61e
100
AcDbEntity
8
6
100
AcDbLine
6
CONTINUOUS
62
5
10
291.620083
20
898.468556
11
291.620083
21
899.168556
0
LINE
5
61f
100
AcDbEntity
8
6
100
AcDbLine
6
CONTINUOUS
62
5
10
291.650082
20
898.520509
11
291.650082
21
899.116603
0
LINE
5
620
100
AcDbEntity
8
6
100
AcDbLine
6
CONTINUOUS
62
5
10
291.783415
20
898.518556
11
292.716749
21
899.218556
0
LINE
5
621
100
AcDbEntity
8
6
100
AcDbLine
6
CONTINUOUS
62
5
10
291.620083
20
899.168556
11
291.250082
21
899.168556
0
LINE
5
622
100
AcDbEntity
8
6
100
AcDbLine
6
CONTINUOUS
62
5
10
291.620083
20
899.168556
11
291.250082
21
899.168556
0
LINE
5
623
100
AcDbEntity
8
6
100
AcDbLine
6
CONTINUOUS
62
5
10
293.016749
20
899.318557
11
291.350082
21
899.318557
0
ARC
5
624
100
AcDbEntity
8
6
100
AcDbCircle
6
CONTINUOUS
62
5
10
291.483415
20
898.918556
40
0.500000
100
AcDbArc
50
-89.999999
51
-53.130071
0
LINE
5
625
100
AcDbEntity
8
6
100
AcDbLine
6
CONTINUOUS
62
5
10
291.250082
20
898.468556
11
291.620083
21
898.468556
0
LINE
5
626
100
AcDbEntity
8
6
100
AcDbLine
6
CONTINUOUS
62
5
10
291.250082
20
898.468556
11
291.620083
21
898.468556
0
LINE
5
627
100
AcDbEntity
8
6
100
AcDbLine
6
CONTINUOUS
62
5
10
291.650082
20
904.220509
11
291.620083
21
904.168556
0
LINE
5
628
100
AcDbEntity
8
6
100
AcDbLine
6
CONTINUOUS
62
5
10
291.650082
20
904.220509
11
291.620083
21
904.168556
0
LINE
5
629
100
AcDbEntity
8
6
100
AcDbLine
6
CONTINUOUS
62
5
10
291.650082
20
903.818555
11
291.650082
21
903.236463
0
LINE
5
62a
100
AcDbEntity
8
6
100
AcDbLine
6
CONTINUOUS
62
5
10
291.620083
20
904.168556
11
291.250082
21
904.168556
0
LINE
5
62b
100
AcDbEntity
8
6
100
AcDbLine
6
CONTINUOUS
62
5
10
291.620083
20
904.168556
11
291.250082
21
904.168556
0
ARC
5
62c
100
AcDbEntity
8
6
100
AcDbCircle
6
CONTINUOUS
62
5
10
291.450082
20
903.818555
40
0.200000
100
AcDbArc
50
0.000000
51
89.999999
0
LINE
5
62d
100
AcDbEntity
8
6
100
AcDbLine
6
CONTINUOUS
62
5
10
290.831880
20
903.236463
11
292.455082
21
903.236463
0
LINE
5
62e
100
AcDbEntity
8
6
100
AcDbLine
6
CONTINUOUS
62
5
10
293.016749
20
904.018555
11
291.350082
21
904.018555
0
POLYLINE
5
62f
100
AcDbEntity
8
1
6
CONTINUOUS
62
5
100
AcDb2dPolyline
66
1
10
0.0
20
0.0
30
0.0
70
0
0
VERTEX
5
630
100
AcDbEntity
8
1
100
AcDbVertex
100
AcDb2dVertex
62
5
10
295.350082
20
903.586935
0
VERTEX
5
631
100
AcDbEntity
8
1
100
AcDbVertex
100
AcDb2dVertex
62
5
10
295.350082
20
909.134176
0
VERTEX
5
632
100
AcDbEntity
8
1
100
AcDbVertex
100
AcDb2dVertex
62
5
10
293.350082
20
909.134176
0
VERTEX
5
633
100
AcDbEntity
8
1
100
AcDbVertex
100
AcDb2dVertex
62
5
10
293.350082
20
904.018555
0
SEQEND
5
634
100
AcDbEntity
8
1
0
CIRCLE
5
635
100
AcDbEntity
8
1
100
AcDbCircle
6
CONTINUOUS
62
5
10
294.350082
20
907.128556
40
0.390000
0
CIRCLE
5
636
100
AcDbEntity
8
1
100
AcDbCircle
6
CONTINUOUS
62
5
10
294.350082
20
907.128556
40
0.425000
0
POLYLINE
5
637
100
AcDbEntity
8
1
6
CONTINUOUS
62
5
100
AcDb2dPolyline
66
1
10
0.0
20
0.0
30
0.0
70
1
0
VERTEX
5
638
100
AcDbEntity
8
1
100
AcDbVertex
100
AcDb2dVertex
62
5
10
294.350082
20
907.359496
0
VERTEX
5
639
100
AcDbEntity
8
1
100
AcDbVertex
100
AcDb2dVertex
62
5
10
294.550082
20
907.244026
0
VERTEX
5
63a
100
AcDbEntity
8
1
100
AcDbVertex
100
AcDb2dVertex
62
5
10
294.550082
20
907.013086
0
VERTEX
5
63b
100
AcDbEntity
8
1
100
AcDbVertex
100
AcDb2dVertex
62
5
10
294.350082
20
906.897616
0
VERTEX
5
63c
100
AcDbEntity
8
1
100
AcDbVertex
100
AcDb2dVertex
62
5
10
294.150082
20
907.013086
0
VERTEX
5
63d
100
AcDbEntity
8
1
100
AcDbVertex
100
AcDb2dVertex
62
5
10
294.150082
20
907.244026
0
VERTEX
5
63e
100
AcDbEntity
8
1
100
AcDbVertex
100
AcDb2dVertex
62
5
10
294.350082
20
907.359496
0
SEQEND
5
63f
100
AcDbEntity
8
1
0
ARC
5
640
100
AcDbEntity
8
6
100
AcDbCircle
6
CONTINUOUS
62
5
10
284.350082
20
901.668556
40
8.250000
100
AcDbArc
50
38.012279
51
51.987720
0
LINE
5
641
100
AcDbEntity
8
1
100
AcDbLine
6
CONTINUOUS
62
5
10
289.850082
20
907.968556
11
289.676666
21
907.968556
0
POLYLINE
5
642
100
AcDbEntity
8
1
6
CONTINUOUS
62
5
100
AcDb2dPolyline
66
1
10
0.0
20
0.0
30
0.0
70
0
0
VERTEX
5
643
100
AcDbEntity
8
1
100
AcDbVertex
100
AcDb2dVertex
62
5
10
289.850082
20
907.968556
0
VERTEX
5
644
100
AcDbEntity
8
1
100
AcDbVertex
100
AcDb2dVertex
62
5
10
289.850082
20
910.368556
0
VERTEX
5
645
100
AcDbEntity
8
1
100
AcDbVertex
100
AcDb2dVertex
62
5
10
289.950082
20
910.468556
0
VERTEX
5
646
100
AcDbEntity
8
1
100
AcDbVertex
100
AcDb2dVertex
62
5
10
292.850082
20
910.468556
0
VERTEX
5
647
100
AcDbEntity
8
1
100
AcDbVertex
100
AcDb2dVertex
62
5
10
293.850082
20
909.468556
0
SEQEND
5
648
100
AcDbEntity
8
1
0
POLYLINE
5
649
100
AcDbEntity
8
1
6
CONTINUOUS
62
5
100
AcDb2dPolyline
66
1
10
0.0
20
0.0
30
0.0
70
1
0
VERTEX
5
64a
100
AcDbEntity
8
1
100
AcDbVertex
100
AcDb2dVertex
62
5
10
281.350082
20
914.628556
0
VERTEX
5
64b
100
AcDbEntity
8
1
100
AcDbVertex
100
AcDb2dVertex
62
5
10
287.350082
20
914.628556
0
VERTEX
5
64c
100
AcDbEntity
8
1
100
AcDbVertex
100
AcDb2dVertex
62
5
10
287.350082
20
915.528556
0
VERTEX
5
64d
100
AcDbEntity
8
1
100
AcDbVertex
100
AcDb2dVertex
62
5
10
281.350082
20
915.528556
0
SEQEND
5
64e
100
AcDbEntity
8
1
0
LINE
5
64f
100
AcDbEntity
8
1
100
AcDbLine
6
CONTINUOUS
62
5
10
282.850082
20
916.098857
11
281.850082
21
916.098857
0
POLYLINE
5
650
100
AcDbEntity
8
1
6
CONTINUOUS
62
5
100
AcDb2dPolyline
66
1
10
0.0
20
0.0
30
0.0
70
1
0
VERTEX
5
651
100
AcDbEntity
8
1
100
AcDbVertex
100
AcDb2dVertex
62
5
10
282.850082
20
915.528556
0
VERTEX
5
652
100
AcDbEntity
8
1
100
AcDbVertex
100
AcDb2dVertex
62
5
10
282.850082
20
916.098857
0
VERTEX
5
653
100
AcDbEntity
8
1
100
AcDbVertex
100
AcDb2dVertex
62
5
10
282.820384
20
916.128556
0
VERTEX
5
654
100
AcDbEntity
8
1
100
AcDbVertex
100
AcDb2dVertex
62
5
10
281.879781
20
916.128556
0
VERTEX
5
655
100
AcDbEntity
8
1
100
AcDbVertex
100
AcDb2dVertex
62
5
10
281.850082
20
916.098857
0
VERTEX
5
656
100
AcDbEntity
8
1
100
AcDbVertex
100
AcDb2dVertex
62
5
10
281.850082
20
915.528556
0
VERTEX
5
657
100
AcDbEntity
8
1
100
AcDbVertex
100
AcDb2dVertex
62
5
10
282.850082
20
915.528556
0
SEQEND
5
658
100
AcDbEntity
8
1
0
LINE
5
659
100
AcDbEntity
8
1
100
AcDbLine
6
CONTINUOUS
62
5
10
282.050082
20
914.428556
11
282.650082
21
914.428556
0
POLYLINE
5
65a
100
AcDbEntity
8
1
6
CONTINUOUS
62
5
100
AcDb2dPolyline
66
1
10
0.0
20
0.0
30
0.0
70
0
0
VERTEX
5
65b
100
AcDbEntity
8
1
100
AcDbVertex
100
AcDb2dVertex
62
5
10
282.050082
20
914.522346
0
VERTEX
5
65c
100
AcDbEntity
8
1
100
AcDbVertex
100
AcDb2dVertex
62
5
10
282.104232
20
914.428556
0
VERTEX
5
65d
100
AcDbEntity
8
1
100
AcDbVertex
100
AcDb2dVertex
62
5
10
282.104232
20
913.668556
0
SEQEND
5
65e
100
AcDbEntity
8
1
0
LINE
5
65f
100
AcDbEntity
8
1
100
AcDbLine
6
CONTINUOUS
62
5
10
282.050082
20
914.628556
11
282.050082
21
913.668556
0
POLYLINE
5
660
100
AcDbEntity
8
1
6
CONTINUOUS
62
5
100
AcDb2dPolyline
66
1
10
0.0
20
0.0
30
0.0
70
0
0
VERTEX
5
661
100
AcDbEntity
8
1
100
AcDbVertex
100
AcDb2dVertex
62
5
10
282.650082
20
914.522346
0
VERTEX
5
662
100
AcDbEntity
8
1
100
AcDbVertex
100
AcDb2dVertex
62
5
10
282.595932
20
914.428556
0
VERTEX
5
663
100
AcDbEntity
8
1
100
AcDbVertex
100
AcDb2dVertex
62
5
10
282.595932
20
913.668556
0
SEQEND
5
664
100
AcDbEntity
8
1
0
LINE
5
665
100
AcDbEntity
8
1
100
AcDbLine
6
CONTINUOUS
62
5
10
282.650082
20
913.668556
11
282.650082
21
914.628556
0
LINE
5
666
100
AcDbEntity
8
1
100
AcDbLine
6
CONTINUOUS
62
5
10
281.850082
20
915.528556
11
281.850082
21
914.628556
0
LINE
5
667
100
AcDbEntity
8
1
100
AcDbLine
6
CONTINUOUS
62
5
10
286.850082
20
916.098857
11
285.850082
21
916.098857
0
POLYLINE
5
668
100
AcDbEntity
8
1
6
CONTINUOUS
62
5
100
AcDb2dPolyline
66
1
10
0.0
20
0.0
30
0.0
70
1
0
VERTEX
5
669
100
AcDbEntity
8
1
100
AcDbVertex
100
AcDb2dVertex
62
5
10
286.850082
20
915.528556
0
VERTEX
5
66a
100
AcDbEntity
8
1
100
AcDbVertex
100
AcDb2dVertex
62
5
10
286.850082
20
916.098857
0
VERTEX
5
66b
100
AcDbEntity
8
1
100
AcDbVertex
100
AcDb2dVertex
62
5
10
286.820384
20
916.128556
0
VERTEX
5
66c
100
AcDbEntity
8
1
100
AcDbVertex
100
AcDb2dVertex
62
5
10
285.879781
20
916.128556
0
VERTEX
5
66d
100
AcDbEntity
8
1
100
AcDbVertex
100
AcDb2dVertex
62
5
10
285.850082
20
916.098857
0
VERTEX
5
66e
100
AcDbEntity
8
1
100
AcDbVertex
100
AcDb2dVertex
62
5
10
285.850082
20
915.528556
0
VERTEX
5
66f
100
AcDbEntity
8
1
100
AcDbVertex
100
AcDb2dVertex
62
5
10
286.850082
20
915.528556
0
SEQEND
5
670
100
AcDbEntity
8
1
0
LINE
5
671
100
AcDbEntity
8
1
100
AcDbLine
6
CONTINUOUS
62
5
10
286.050082
20
914.428556
11
286.650082
21
914.428556
0
LINE
5
672
100
AcDbEntity
8
1
100
AcDbLine
6
CONTINUOUS
62
5
10
286.650082
20
913.668556
11
286.650082
21
914.628556
0
POLYLINE
5
673
100
AcDbEntity
8
1
6
CONTINUOUS
62
5
100
AcDb2dPolyline
66
1
10
0.0
20
0.0
30
0.0
70
0
0
VERTEX
5
674
100
AcDbEntity
8
1
100
AcDbVertex
100
AcDb2dVertex
62
5
10
286.650082
20
914.522346
0
VERTEX
5
675
100
AcDbEntity
8
1
100
AcDbVertex
100
AcDb2dVertex
62
5
10
286.595932
20
914.428556
0
VERTEX
5
676
100
AcDbEntity
8
1
100
AcDbVertex
100
AcDb2dVertex
62
5
10
286.595932
20
913.668556
0
SEQEND
5
677
100
AcDbEntity
8
1
0
LINE
5
678
100
AcDbEntity
8
1
100
AcDbLine
6
CONTINUOUS
62
5
10
286.050082
20
914.628556
11
286.050082
21
913.668556
0
POLYLINE
5
679
100
AcDbEntity
8
1
6
CONTINUOUS
62
5
100
AcDb2dPolyline
66
1
10
0.0
20
0.0
30
0.0
70
0
0
VERTEX
5
67a
100
AcDbEntity
8
1
100
AcDbVertex
100
AcDb2dVertex
62
5
10
286.050082
20
914.522346
0
VERTEX
5
67b
100
AcDbEntity
8
1
100
AcDbVertex
100
AcDb2dVertex
62
5
10
286.104232
20
914.428556
0
VERTEX
5
67c
100
AcDbEntity
8
1
100
AcDbVertex
100
AcDb2dVertex
62
5
10
286.104232
20
913.668556
0
SEQEND
5
67d
100
AcDbEntity
8
1
0
LINE
5
67e
100
AcDbEntity
8
1
100
AcDbLine
6
CONTINUOUS
62
5
10
286.850082
20
915.528556
11
286.850082
21
914.628556
0
ARC
5
67f
100
AcDbEntity
8
6
100
AcDbCircle
6
CONTINUOUS
62
5
10
284.350082
20
901.668556
40
3.950000
100
AcDbArc
50
32.763762
51
-32.763762
0
ARC
5
680
100
AcDbEntity
8
6
100
AcDbCircle
6
CONTINUOUS
62
5
10
284.350082
20
901.668556
40
3.850000
100
AcDbArc
50
33.656791
51
-33.656791
0
LINE
5
681
100
AcDbEntity
8
6
100
AcDbLine
6
CONTINUOUS
62
5
10
281.238809
20
904.953018
11
281.388798
21
904.866422
0
LINE
5
682
100
AcDbEntity
8
6
100
AcDbLine
6
CONTINUOUS
62
5
10
281.088804
20
904.866446
11
281.238793
21
904.953043
0
LINE
5
683
100
AcDbEntity
8
6
100
AcDbLine
6
CONTINUOUS
62
5
10
281.238804
20
904.606632
11
281.388793
21
904.693228
0
LINE
5
684
100
AcDbEntity
8
6
100
AcDbLine
6
CONTINUOUS
62
5
10
281.088809
20
904.693204
11
281.238798
21
904.606607
0
CIRCLE
5
685
100
AcDbEntity
8
6
100
AcDbCircle
6
CONTINUOUS
62
5
10
281.238812
20
904.779825
40
0.350000
0
LINE
5
686
100
AcDbEntity
8
6
100
AcDbLine
6
CONTINUOUS
62
5
10
281.088812
20
904.693228
11
281.088812
21
904.866446
0
LINE
5
687
100
AcDbEntity
8
6
100
AcDbLine
6
CONTINUOUS
62
5
10
281.388812
20
904.693228
11
281.388812
21
904.866446
0
CIRCLE
5
688
100
AcDbEntity
8
6
100
AcDbCircle
6
CONTINUOUS
62
5
10
281.240193
20
904.778444
40
0.400000
0
LINE
5
689
100
AcDbEntity
8
6
100
AcDbLine
6
CONTINUOUS
62
5
10
281.325409
20
898.407286
11
281.152191
21
898.407286
0
LINE
5
68a
100
AcDbEntity
8
6
100
AcDbLine
6
CONTINUOUS
62
5
10
281.152191
20
898.407278
11
281.065594
21
898.557267
0
LINE
5
68b
100
AcDbEntity
8
6
100
AcDbLine
6
CONTINUOUS
62
5
10
281.325433
20
898.407283
11
281.412030
21
898.557272
0
LINE
5
68c
100
AcDbEntity
8
6
100
AcDbLine
6
CONTINUOUS
62
5
10
281.065619
20
898.557283
11
281.152215
21
898.707272
0
LINE
5
68d
100
AcDbEntity
8
6
100
AcDbLine
6
CONTINUOUS
62
5
10
281.412005
20
898.557278
11
281.325409
21
898.707267
0
LINE
5
68e
100
AcDbEntity
8
6
100
AcDbLine
6
CONTINUOUS
62
5
10
281.325409
20
898.707286
11
281.152191
21
898.707286
0
CIRCLE
5
68f
100
AcDbEntity
8
6
100
AcDbCircle
6
CONTINUOUS
62
5
10
281.238812
20
898.557286
40
0.350000
0
CIRCLE
5
690
100
AcDbEntity
8
6
100
AcDbCircle
6
CONTINUOUS
62
5
10
281.240193
20
898.558667
40
0.400000
0
LINE
5
691
100
AcDbEntity
8
6
100
AcDbLine
6
CONTINUOUS
62
5
10
280.750082
20
907.253086
11
280.750082
21
907.484026
0
LINE
5
692
100
AcDbEntity
8
6
100
AcDbLine
6
CONTINUOUS
62
5
10
280.750082
20
907.253086
11
280.950082
21
907.137616
0
LINE
5
693
100
AcDbEntity
8
6
100
AcDbLine
6
CONTINUOUS
62
5
10
281.150082
20
907.253086
11
281.150082
21
907.484026
0
LINE
5
694
100
AcDbEntity
8
6
100
AcDbLine
6
CONTINUOUS
62
5
10
280.950082
20
907.137616
11
281.150082
21
907.253086
0
LINE
5
695
100
AcDbEntity
8
6
100
AcDbLine
6
CONTINUOUS
62
5
10
277.850082
20
896.587956
11
277.850084
21
906.749159
0
ARC
5
696
100
AcDbEntity
8
6
100
AcDbCircle
6
CONTINUOUS
62
5
10
284.350082
20
901.668556
40
6.500000
100
AcDbArc
50
-136.799769
51
-133.223649
0
LINE
5
697
100
AcDbEntity
8
6
100
AcDbLine
6
CONTINUOUS
62
5
10
278.765552
20
898.468556
11
278.534612
21
898.468556
0
LINE
5
698
100
AcDbEntity
8
6
100
AcDbLine
6
CONTINUOUS
62
5
10
278.765552
20
898.068556
11
278.534612
21
898.068556
0
LINE
5
699
100
AcDbEntity
8
6
100
AcDbLine
6
CONTINUOUS
62
5
10
278.419142
20
898.268556
11
278.534612
21
898.468556
0
LINE
5
69a
100
AcDbEntity
8
6
100
AcDbLine
6
CONTINUOUS
62
5
10
278.534612
20
898.068556
11
278.419142
21
898.268556
0
LINE
5
69b
100
AcDbEntity
8
6
100
AcDbLine
6
CONTINUOUS
62
5
10
278.350082
20
897.468556
11
277.850082
21
897.968556
0
LINE
5
69c
100
AcDbEntity
8
6
100
AcDbLine
6
CONTINUOUS
62
5
10
278.350082
20
897.468556
11
279.031259
21
897.468556
0
CIRCLE
5
69d
100
AcDbEntity
8
6
100
AcDbCircle
6
CONTINUOUS
62
5
10
278.650082
20
898.268556
40
0.375000
0
LINE
5
69e
100
AcDbEntity
8
6
100
AcDbLine
6
CONTINUOUS
62
5
10
278.881022
20
898.268556
11
278.765552
21
898.468556
0
LINE
5
69f
100
AcDbEntity
8
6
100
AcDbLine
6
CONTINUOUS
62
5
10
278.765552
20
898.068556
11
278.881022
21
898.268556
0
CIRCLE
5
6a0
100
AcDbEntity
8
6
100
AcDbCircle
6
CONTINUOUS
62
5
10
278.650082
20
898.268556
40
0.475000
0
ARC
5
6a1
100
AcDbEntity
8
6
100
AcDbCircle
6
CONTINUOUS
62
5
10
279.031248
20
896.668556
40
0.800000
100
AcDbArc
50
43.230220
51
89.999999
0
LINE
5
6a2
100
AcDbEntity
8
2
100
AcDbLine
6
CONTINUOUS
62
5
10
279.776889
20
901.668553
11
279.863485
21
901.818542
0
LINE
5
6a3
100
AcDbEntity
8
2
100
AcDbLine
6
CONTINUOUS
62
5
10
280.036679
20
901.818556
11
279.863461
21
901.818556
0
LINE
5
6a4
100
AcDbEntity
8
2
100
AcDbLine
6
CONTINUOUS
62
5
10
280.123275
20
901.668548
11
280.036679
21
901.818537
0
LINE
5
6a5
100
AcDbEntity
8
2
100
AcDbLine
6
CONTINUOUS
62
5
10
280.036679
20
901.518556
11
279.863461
21
901.518556
0
LINE
5
6a6
100
AcDbEntity
8
2
100
AcDbLine
6
CONTINUOUS
62
5
10
279.863461
20
901.518548
11
279.776864
21
901.668537
0
CIRCLE
5
6a7
100
AcDbEntity
8
2
100
AcDbCircle
6
CONTINUOUS
62
5
10
279.950082
20
901.668556
40
0.350000
0
LINE
5
6a8
100
AcDbEntity
8
2
100
AcDbLine
6
CONTINUOUS
62
5
10
280.036703
20
901.518553
11
280.123300
21
901.668542
0
CIRCLE
5
6a9
100
AcDbEntity
8
6
100
AcDbCircle
6
CONTINUOUS
62
5
10
279.950082
20
901.668556
40
0.400000
0
ARC
5
6aa
100
AcDbEntity
8
6
100
AcDbCircle
6
CONTINUOUS
62
5
10
284.350082
20
901.668556
40
6.500000
100
AcDbArc
50
133.200229
51
136.776349
0
LINE
5
6ab
100
AcDbEntity
8
6
100
AcDbLine
6
CONTINUOUS
62
5
10
278.350084
20
905.868556
11
277.850084
21
905.368556
0
CIRCLE
5
6ac
100
AcDbEntity
8
1
100
AcDbCircle
6
CONTINUOUS
62
5
10
279.225082
20
906.793556
40
0.594000
0
CIRCLE
5
6ad
100
AcDbEntity
8
1
100
AcDbCircle
6
CONTINUOUS
62
5
10
279.225082
20
906.793556
40
0.650000
0
POLYLINE
5
6ae
100
AcDbEntity
8
1
6
CONTINUOUS
62
5
100
AcDb2dPolyline
66
1
10
0.0
20
0.0
30
0.0
70
1
0
VERTEX
5
6af
100
AcDbEntity
8
1
100
AcDbVertex
100
AcDb2dVertex
62
5
10
279.225082
20
907.139966
0
VERTEX
5
6b0
100
AcDbEntity
8
1
100
AcDbVertex
100
AcDb2dVertex
62
5
10
279.525082
20
906.966761
0
VERTEX
5
6b1
100
AcDbEntity
8
1
100
AcDbVertex
100
AcDb2dVertex
62
5
10
279.525082
20
906.620351
0
VERTEX
5
6b2
100
AcDbEntity
8
1
100
AcDbVertex
100
AcDb2dVertex
62
5
10
279.225082
20
906.447145
0
VERTEX
5
6b3
100
AcDbEntity
8
1
100
AcDbVertex
100
AcDb2dVertex
62
5
10
278.925082
20
906.620351
0
VERTEX
5
6b4
100
AcDbEntity
8
1
100
AcDbVertex
100
AcDb2dVertex
62
5
10
278.925082
20
906.966761
0
VERTEX
5
6b5
100
AcDbEntity
8
1
100
AcDbVertex
100
AcDb2dVertex
62
5
10
279.225082
20
907.139966
0
SEQEND
5
6b6
100
AcDbEntity
8
1
0
LINE
5
6b7
100
AcDbEntity
8
6
100
AcDbLine
6
CONTINUOUS
62
5
10
278.350084
20
905.868556
11
279.031234
21
905.868556
0
ARC
5
6b8
100
AcDbEntity
8
6
100
AcDbCircle
6
CONTINUOUS
62
5
10
279.031234
20
906.668556
40
0.800000
100
AcDbArc
50
-89.999969
51
-43.230194
0
ARC
5
6b9
100
AcDbEntity
8
6
100
AcDbCircle
6
CONTINUOUS
62
5
10
279.350082
20
906.987390
40
0.800000
100
AcDbArc
50
-46.769779
51
0.000000
0
LINE
5
6ba
100
AcDbEntity
8
6
100
AcDbLine
6
CONTINUOUS
62
5
10
287.374755
20
904.929825
11
287.547973
21
904.929825
0
LINE
5
6bb
100
AcDbEntity
8
6
100
AcDbLine
6
CONTINUOUS
62
5
10
287.374755
20
904.629825
11
287.547973
21
904.629825
0
LINE
5
6bc
100
AcDbEntity
8
6
100
AcDbLine
6
CONTINUOUS
62
5
10
287.288159
20
904.779833
11
287.374755
21
904.629844
0
LINE
5
6bd
100
AcDbEntity
8
6
100
AcDbLine
6
CONTINUOUS
62
5
10
287.374731
20
904.929828
11
287.288134
21
904.779839
0
CIRCLE
5
6be
100
AcDbEntity
8
6
100
AcDbCircle
6
CONTINUOUS
62
5
10
287.459971
20
904.778444
40
0.400000
0
LINE
5
6bf
100
AcDbEntity
8
6
100
AcDbLine
6
CONTINUOUS
62
5
10
287.634545
20
904.779828
11
287.547949
21
904.629839
0
CIRCLE
5
6c0
100
AcDbEntity
8
6
100
AcDbCircle
6
CONTINUOUS
62
5
10
287.461352
20
904.779825
40
0.350000
0
LINE
5
6c1
100
AcDbEntity
8
6
100
AcDbLine
6
CONTINUOUS
62
5
10
287.547973
20
904.929833
11
287.634570
21
904.779844
0
ARC
5
6c2
100
AcDbEntity
8
6
100
AcDbCircle
6
CONTINUOUS
62
5
10
287.923946
20
899.368556
40
0.300000
100
AcDbArc
50
89.999999
51
147.236236
0
ARC
5
6c3
100
AcDbEntity
8
6
100
AcDbCircle
6
CONTINUOUS
62
5
10
287.804427
20
899.368556
40
0.300000
100
AcDbArc
50
89.999999
51
146.343207
0
LINE
5
6c4
100
AcDbEntity
8
6
100
AcDbLine
6
CONTINUOUS
62
5
10
287.461355
20
898.384093
11
287.311366
21
898.470689
0
LINE
5
6c5
100
AcDbEntity
8
6
100
AcDbLine
6
CONTINUOUS
62
5
10
287.461360
20
898.730479
11
287.311371
21
898.643883
0
LINE
5
6c6
100
AcDbEntity
8
6
100
AcDbLine
6
CONTINUOUS
62
5
10
287.311352
20
898.643883
11
287.311352
21
898.470665
0
LINE
5
6c7
100
AcDbEntity
8
6
100
AcDbLine
6
CONTINUOUS
62
5
10
287.611360
20
898.470665
11
287.461371
21
898.384068
0
LINE
5
6c8
100
AcDbEntity
8
6
100
AcDbLine
6
CONTINUOUS
62
5
10
287.611352
20
898.643883
11
287.611352
21
898.470665
0
LINE
5
6c9
100
AcDbEntity
8
6
100
AcDbLine
6
CONTINUOUS
62
5
10
287.611355
20
898.643907
11
287.461366
21
898.730504
0
CIRCLE
5
6ca
100
AcDbEntity
8
6
100
AcDbCircle
6
CONTINUOUS
62
5
10
287.459971
20
898.558667
40
0.400000
0
CIRCLE
5
6cb
100
AcDbEntity
8
6
100
AcDbCircle
6
CONTINUOUS
62
5
10
287.461352
20
898.557286
40
0.350000
0
ARC
5
6cc
100
AcDbEntity
8
6
100
AcDbCircle
6
CONTINUOUS
62
5
10
287.923946
20
903.968556
40
0.300000
100
AcDbArc
50
-147.236236
51
-89.999999
0
ARC
5
6cd
100
AcDbEntity
8
6
100
AcDbCircle
6
CONTINUOUS
62
5
10
287.804427
20
903.968556
40
0.300000
100
AcDbArc
50
-146.343207
51
-89.999999
0
LINE
5
6ce
100
AcDbEntity
8
1
100
AcDbLine
6
CONTINUOUS
62
5
10
280.350082
20
908.168556
11
284.350082
21
908.168556
0
LINE
5
6cf
100
AcDbEntity
8
6
100
AcDbLine
6
CONTINUOUS
62
5
10
280.750082
20
907.484026
11
280.950082
21
907.599496
0
CIRCLE
5
6d0
100
AcDbEntity
8
6
100
AcDbCircle
6
CONTINUOUS
62
5
10
280.950082
20
907.368556
40
0.375000
0
CIRCLE
5
6d1
100
AcDbEntity
8
6
100
AcDbCircle
6
CONTINUOUS
62
5
10
280.950082
20
907.368556
40
0.475000
0
LINE
5
6d2
100
AcDbEntity
8
6
100
AcDbLine
6
CONTINUOUS
62
5
10
280.950082
20
907.599496
11
281.150082
21
907.484026
0
LINE
5
6d3
100
AcDbEntity
8
6
100
AcDbLine
6
CONTINUOUS
62
5
10
280.150082
20
907.668556
11
280.650082
21
908.168556
0
LINE
5
6d4
100
AcDbEntity
8
6
100
AcDbLine
6
CONTINUOUS
62
5
10
280.150082
20
907.668556
11
280.150082
21
906.987379
0
ARC
5
6d5
100
AcDbEntity
8
6
100
AcDbCircle
6
CONTINUOUS
62
5
10
284.350082
20
901.668556
40
8.250000
100
AcDbArc
50
128.012278
51
141.987692
0
LINE
5
6d6
100
AcDbEntity
8
1
100
AcDbLine
6
CONTINUOUS
62
5
10
279.023498
20
907.968556
11
278.850082
21
907.968556
0
ARC
5
6d7
100
AcDbEntity
8
6
100
AcDbCircle
6
CONTINUOUS
62
5
10
284.350082
20
901.668556
40
4.950000
100
AcDbArc
50
24.089506
51
-24.089506
0
LINE
5
6d8
100
AcDbEntity
8
1
100
AcDbLine
6
DOT2
62
5
10
277.643456
20
901.668556
11
291.117362
21
901.668556
0
LINE
5
6d9
100
AcDbEntity
8
6
100
AcDbLine
6
CONTINUOUS
62
5
10
279.269482
20
908.168556
11
289.430682
21
908.168556
0
POLYLINE
5
6da
100
AcDbEntity
8
1
6
CONTINUOUS
62
5
100
AcDb2dPolyline
66
1
10
0.0
20
0.0
30
0.0
70
0
0
VERTEX
5
6db
100
AcDbEntity
8
1
100
AcDbVertex
100
AcDb2dVertex
62
5
10
288.350082
20
908.168556
0
VERTEX
5
6dc
100
AcDbEntity
8
1
100
AcDbVertex
100
AcDb2dVertex
62
5
10
288.350082
20
913.668556
0
VERTEX
5
6dd
100
AcDbEntity
8
1
100
AcDbVertex
100
AcDb2dVertex
62
5
10
280.350082
20
913.668556
0
VERTEX
5
6de
100
AcDbEntity
8
1
100
AcDbVertex
100
AcDb2dVertex
62
5
10
280.350082
20
908.168556
0
SEQEND
5
6df
100
AcDbEntity
8
1
0
LINE
5
6e0
100
AcDbEntity
8
6
100
AcDbLine
6
CONTINUOUS
62
5
10
290.350082
20
899.668556
11
287.804427
21
899.668556
0
LINE
5
6e1
100
AcDbEntity
8
6
100
AcDbLine
6
CONTINUOUS
62
5
10
290.350082
20
903.668556
11
287.804427
21
903.668556
0
ARC
5
6e2
100
AcDbEntity
8
6
100
AcDbCircle
6
CONTINUOUS
62
5
10
284.350082
20
901.668556
40
6.500000
100
AcDbArc
50
-46.799770
51
-43.223650
0
CIRCLE
5
6e3
100
AcDbEntity
8
1
100
AcDbCircle
6
CONTINUOUS
62
5
10
289.475082
20
906.793556
40
0.594000
0
CIRCLE
5
6e4
100
AcDbEntity
8
1
100
AcDbCircle
6
CONTINUOUS
62
5
10
289.475082
20
906.793556
40
0.650000
0
POLYLINE
5
6e5
100
AcDbEntity
8
1
6
CONTINUOUS
62
5
100
AcDb2dPolyline
66
1
10
0.0
20
0.0
30
0.0
70
1
0
VERTEX
5
6e6
100
AcDbEntity
8
1
100
AcDbVertex
100
AcDb2dVertex
62
5
10
289.475082
20
907.139966
0
VERTEX
5
6e7
100
AcDbEntity
8
1
100
AcDbVertex
100
AcDb2dVertex
62
5
10
289.775082
20
906.966761
0
VERTEX
5
6e8
100
AcDbEntity
8
1
100
AcDbVertex
100
AcDb2dVertex
62
5
10
289.775082
20
906.620351
0
VERTEX
5
6e9
100
AcDbEntity
8
1
100
AcDbVertex
100
AcDb2dVertex
62
5
10
289.475082
20
906.447145
0
VERTEX
5
6ea
100
AcDbEntity
8
1
100
AcDbVertex
100
AcDb2dVertex
62
5
10
289.175082
20
906.620351
0
VERTEX
5
6eb
100
AcDbEntity
8
1
100
AcDbVertex
100
AcDb2dVertex
62
5
10
289.175082
20
906.966761
0
VERTEX
5
6ec
100
AcDbEntity
8
1
100
AcDbVertex
100
AcDb2dVertex
62
5
10
289.475082
20
907.139966
0
SEQEND
5
6ed
100
AcDbEntity
8
1
0
LINE
5
6ee
100
AcDbEntity
8
1
100
AcDbLine
6
CONTINUOUS
62
5
10
284.350082
20
908.168556
11
288.350082
21
908.168556
0
CIRCLE
5
6ef
100
AcDbEntity
8
6
100
AcDbCircle
6
CONTINUOUS
62
5
10
289.120083
20
907.668532
40
0.245850
0
ARC
5
6f0
100
AcDbEntity
8
6
100
AcDbCircle
6
CONTINUOUS
62
5
10
284.350082
20
901.668556
40
6.500000
100
AcDbArc
50
43.200230
51
46.776350
0
LINE
5
6f1
100
AcDbEntity
8
6
100
AcDbLine
6
CONTINUOUS
62
5
10
288.550082
20
907.668553
11
288.050082
21
908.168554
0
LINE
5
6f2
100
AcDbEntity
8
6
100
AcDbLine
6
CONTINUOUS
62
5
10
288.550082
20
907.668553
11
288.550082
21
906.987404
0
ARC
5
6f3
100
AcDbEntity
8
6
100
AcDbCircle
6
CONTINUOUS
62
5
10
289.350082
20
906.987404
40
0.800000
100
AcDbArc
50
-179.999968
51
-133.230193
0
ARC
5
6f4
100
AcDbEntity
8
1
100
AcDbCircle
6
CONTINUOUS
62
5
10
295.050055
20
910.328556
40
0.300000
100
AcDbArc
50
0.000000
51
89.999999
0
LINE
5
6f5
100
AcDbEntity
8
1
100
AcDbLine
6
CONTINUOUS
62
5
10
295.050055
20
910.628556
11
288.350082
21
910.628556
0
LINE
5
6f6
100
AcDbEntity
8
1
100
AcDbLine
6
CONTINUOUS
62
5
10
295.350055
20
903.586935
11
295.350055
21
910.328556
0
LINE
5
6f7
100
AcDbEntity
8
1
100
AcDbLine
6
CONTINUOUS
62
5
10
293.850082
20
892.628556
11
293.850082
21
894.134176
0
LINE
5
6f8
100
AcDbEntity
8
1
100
AcDbLine
6
CONTINUOUS
62
5
10
293.571264
20
889.128556
11
293.571264
21
889.028556
0
POLYLINE
5
6f9
100
AcDbEntity
8
1
6
CONTINUOUS
62
5
100
AcDb2dPolyline
66
1
10
0.0
20
0.0
30
0.0
70
0
0
VERTEX
5
6fa
100
AcDbEntity
8
1
100
AcDbVertex
100
AcDb2dVertex
62
5
10
289.850082
20
895.168556
0
VERTEX
5
6fb
100
AcDbEntity
8
1
100
AcDbVertex
100
AcDb2dVertex
62
5
10
289.850082
20
892.968556
0
VERTEX
5
6fc
100
AcDbEntity
8
1
100
AcDbVertex
100
AcDb2dVertex
62
5
10
289.950082
20
892.868556
0
VERTEX
5
6fd
100
AcDbEntity
8
1
100
AcDbVertex
100
AcDb2dVertex
62
5
10
292.850082
20
892.868556
0
VERTEX
5
6fe
100
AcDbEntity
8
1
100
AcDbVertex
100
AcDb2dVertex
62
5
10
293.850082
20
893.868556
0
SEQEND
5
6ff
100
AcDbEntity
8
1
0
ARC
5
700
100
AcDbEntity
8
1
100
AcDbCircle
6
CONTINUOUS
62
5
10
292.932537
20
886.997706
40
0.201614
100
AcDbArc
50
40.466918
51
85.007648
0
LINE
5
701
100
AcDbEntity
8
1
100
AcDbLine
6
CONTINUOUS
62
5
10
292.950082
20
887.128556
11
292.950082
21
887.198556
0
LINE
5
702
100
AcDbEntity
8
1
100
AcDbLine
6
CONTINUOUS
62
5
10
293.999546
20
887.128556
11
294.099680
21
887.128556
0
LINE
5
703
100
AcDbEntity
8
1
100
AcDbLine
6
CONTINUOUS
62
5
10
294.350082
20
887.128556
11
293.999546
21
887.128556
0
POLYLINE
5
704
100
AcDbEntity
8
1
6
CONTINUOUS
62
5
100
AcDb2dPolyline
66
1
10
0.0
20
0.0
30
0.0
70
1
0
VERTEX
5
705
100
AcDbEntity
8
1
100
AcDbVertex
100
AcDb2dVertex
62
5
10
293.799680
20
888.828556
0
VERTEX
5
706
100
AcDbEntity
8
1
100
AcDbVertex
100
AcDb2dVertex
62
5
10
293.084737
20
887.319054
0
SEQEND
5
707
100
AcDbEntity
8
1
0
POLYLINE
5
708
100
AcDbEntity
8
1
6
CONTINUOUS
62
5
100
AcDb2dPolyline
66
1
10
0.0
20
0.0
30
0.0
70
0
0
VERTEX
5
709
100
AcDbEntity
8
1
100
AcDbVertex
100
AcDb2dVertex
62
5
10
294.350082
20
887.128556
0
VERTEX
5
70a
100
AcDbEntity
8
1
100
AcDbVertex
100
AcDb2dVertex
62
5
10
294.350082
20
888.066297
0
VERTEX
5
70b
100
AcDbEntity
8
1
100
AcDbVertex
100
AcDb2dVertex
62
5
10
294.350082
20
888.449266
0
VERTEX
5
70c
100
AcDbEntity
8
1
100
AcDbVertex
100
AcDb2dVertex
62
5
10
294.099680
20
888.699668
0
SEQEND
5
70d
100
AcDbEntity
8
1
0
LINE
5
70e
100
AcDbEntity
8
1
100
AcDbLine
6
CONTINUOUS
62
5
10
294.099680
20
887.128556
11
294.099680
21
888.699668
0
LINE
5
70f
100
AcDbEntity
8
1
100
AcDbLine
6
CONTINUOUS
62
5
10
295.052916
20
887.617080
11
295.050025
21
890.928556
0
LINE
5
710
100
AcDbEntity
8
1
100
AcDbLine
6
CONTINUOUS
62
5
10
294.350082
20
879.028556
11
295.350082
21
879.028556
0
LINE
5
711
100
AcDbEntity
8
1
100
AcDbLine
6
CONTINUOUS
62
5
10
295.350082
20
880.128556
11
294.350082
21
880.128556
0
CIRCLE
5
712
100
AcDbEntity
8
1
100
AcDbCircle
6
CONTINUOUS
62
5
10
291.850082
20
878.028556
40
0.390000
0
CIRCLE
5
713
100
AcDbEntity
8
1
100
AcDbCircle
6
CONTINUOUS
62
5
10
291.850082
20
878.028556
40
0.425000
0
POLYLINE
5
714
100
AcDbEntity
8
1
6
CONTINUOUS
62
5
100
AcDb2dPolyline
66
1
10
0.0
20
0.0
30
0.0
70
1
0
VERTEX
5
715
100
AcDbEntity
8
1
100
AcDbVertex
100
AcDb2dVertex
62
5
10
291.619142
20
878.028556
0
VERTEX
5
716
100
AcDbEntity
8
1
100
AcDbVertex
100
AcDb2dVertex
62
5
10
291.734612
20
878.228556
0
VERTEX
5
717
100
AcDbEntity
8
1
100
AcDbVertex
100
AcDb2dVertex
62
5
10
291.965552
20
878.228556
0
VERTEX
5
718
100
AcDbEntity
8
1
100
AcDbVertex
100
AcDb2dVertex
62
5
10
292.081022
20
878.028556
0
VERTEX
5
719
100
AcDbEntity
8
1
100
AcDbVertex
100
AcDb2dVertex
62
5
10
291.965552
20
877.828556
0
VERTEX
5
71a
100
AcDbEntity
8
1
100
AcDbVertex
100
AcDb2dVertex
62
5
10
291.734612
20
877.828556
0
VERTEX
5
71b
100
AcDbEntity
8
1
100
AcDbVertex
100
AcDb2dVertex
62
5
10
291.619142
20
878.028556
0
SEQEND
5
71c
100
AcDbEntity
8
1
0
LINE
5
71d
100
AcDbEntity
8
1
100
AcDbLine
6
CONTINUOUS
62
5
10
293.450082
20
887.128027
11
293.450082
21
873.417307
0
LINE
5
71e
100
AcDbEntity
8
1
100
AcDbLine
6
CONTINUOUS
62
5
10
280.850082
20
893.898254
11
281.850082
21
893.898254
0
POLYLINE
5
71f
100
AcDbEntity
8
1
6
CONTINUOUS
62
5
100
AcDb2dPolyline
66
1
10
0.0
20
0.0
30
0.0
70
1
0
VERTEX
5
720
100
AcDbEntity
8
1
100
AcDbVertex
100
AcDb2dVertex
62
5
10
280.850082
20
894.468556
0
VERTEX
5
721
100
AcDbEntity
8
1
100
AcDbVertex
100
AcDb2dVertex
62
5
10
280.850082
20
893.898254
0
VERTEX
5
722
100
AcDbEntity
8
1
100
AcDbVertex
100
AcDb2dVertex
62
5
10
280.879781
20
893.868556
0
VERTEX
5
723
100
AcDbEntity
8
1
100
AcDbVertex
100
AcDb2dVertex
62
5
10
281.820384
20
893.868556
0
VERTEX
5
724
100
AcDbEntity
8
1
100
AcDbVertex
100
AcDb2dVertex
62
5
10
281.850082
20
893.898254
0
VERTEX
5
725
100
AcDbEntity
8
1
100
AcDbVertex
100
AcDb2dVertex
62
5
10
281.850082
20
894.468556
0
VERTEX
5
726
100
AcDbEntity
8
1
100
AcDbVertex
100
AcDb2dVertex
62
5
10
280.850082
20
894.468556
0
SEQEND
5
727
100
AcDbEntity
8
1
0
LINE
5
728
100
AcDbEntity
8
1
100
AcDbLine
6
CONTINUOUS
62
5
10
281.050082
20
894.518556
11
281.050082
21
894.468556
0
LINE
5
729
100
AcDbEntity
8
1
100
AcDbLine
6
HIDDEN
62
5
10
281.050082
20
894.968556
11
281.050082
21
894.518556
0
POLYLINE
5
72a
100
AcDbEntity
8
1
6
HIDDEN
62
5
100
AcDb2dPolyline
66
1
10
0.0
20
0.0
30
0.0
70
0
0
VERTEX
5
72b
100
AcDbEntity
8
1
100
AcDbVertex
100
AcDb2dVertex
62
5
10
281.100082
20
894.968556
0
VERTEX
5
72c
100
AcDbEntity
8
1
100
AcDbVertex
100
AcDb2dVertex
62
5
10
281.100082
20
894.518556
0
VERTEX
5
72d
100
AcDbEntity
8
1
100
AcDbVertex
100
AcDb2dVertex
62
5
10
281.600082
20
894.518556
0
VERTEX
5
72e
100
AcDbEntity
8
1
100
AcDbVertex
100
AcDb2dVertex
62
5
10
281.600082
20
894.968556
0
SEQEND
5
72f
100
AcDbEntity
8
1
0
LINE
5
730
100
AcDbEntity
8
6
100
AcDbLine
6
CONTINUOUS
62
5
10
280.650082
20
895.168556
11
282.450033
21
895.168556
0
LINE
5
731
100
AcDbEntity
8
6
100
AcDbLine
6
CONTINUOUS
62
5
10
280.645141
20
895.168556
11
284.350082
21
895.168556
0
LINE
5
732
100
AcDbEntity
8
1
100
AcDbLine
6
CONTINUOUS
62
5
10
281.650082
20
895.096431
11
281.050082
21
895.096431
0
LINE
5
733
100
AcDbEntity
8
1
100
AcDbLine
6
CONTINUOUS
62
5
10
281.104232
20
894.968556
11
281.104232
21
895.150581
0
POLYLINE
5
734
100
AcDbEntity
8
1
6
CONTINUOUS
62
5
100
AcDb2dPolyline
66
1
10
0.0
20
0.0
30
0.0
70
0
0
VERTEX
5
735
100
AcDbEntity
8
1
100
AcDbVertex
100
AcDb2dVertex
62
5
10
281.650082
20
894.968556
0
VERTEX
5
736
100
AcDbEntity
8
1
100
AcDbVertex
100
AcDb2dVertex
62
5
10
281.650082
20
895.096431
0
VERTEX
5
737
100
AcDbEntity
8
1
100
AcDbVertex
100
AcDb2dVertex
62
5
10
281.577957
20
895.168556
0
VERTEX
5
738
100
AcDbEntity
8
1
100
AcDbVertex
100
AcDb2dVertex
62
5
10
281.122207
20
895.168556
0
VERTEX
5
739
100
AcDbEntity
8
1
100
AcDbVertex
100
AcDb2dVertex
62
5
10
281.050082
20
895.096431
0
VERTEX
5
73a
100
AcDbEntity
8
1
100
AcDbVertex
100
AcDb2dVertex
62
5
10
281.050082
20
894.968556
0
SEQEND
5
73b
100
AcDbEntity
8
1
0
LINE
5
73c
100
AcDbEntity
8
6
100
AcDbLine
6
CONTINUOUS
62
5
10
279.269482
20
895.168556
11
284.350082
21
895.168556
0
LINE
5
73d
100
AcDbEntity
8
1
100
AcDbLine
6
CONTINUOUS
62
5
10
281.650082
20
894.518556
11
281.650082
21
894.468556
0
LINE
5
73e
100
AcDbEntity
8
1
100
AcDbLine
6
HIDDEN
62
5
10
281.650082
20
894.518556
11
281.650082
21
894.968556
0
LINE
5
73f
100
AcDbEntity
8
1
100
AcDbLine
6
CONTINUOUS
62
5
10
281.595932
20
894.968556
11
281.595932
21
895.150581
0
LINE
5
740
100
AcDbEntity
8
1
100
AcDbLine
6
CONTINUOUS
62
5
10
287.050082
20
894.518556
11
287.050082
21
894.468556
0
LINE
5
741
100
AcDbEntity
8
1
100
AcDbLine
6
HIDDEN
62
5
10
287.050082
20
894.968556
11
287.050082
21
894.518556
0
LINE
5
742
100
AcDbEntity
8
1
100
AcDbLine
6
HIDDEN
62
5
10
287.050082
20
894.968556
11
287.050082
21
894.518556
0
LINE
5
743
100
AcDbEntity
8
1
100
AcDbLine
6
CONTINUOUS
62
5
10
287.104232
20
894.968556
11
287.104232
21
895.150581
0
LINE
5
744
100
AcDbEntity
8
1
100
AcDbLine
6
CONTINUOUS
62
5
10
286.850082
20
893.898254
11
287.850082
21
893.898254
0
POLYLINE
5
745
100
AcDbEntity
8
1
6
CONTINUOUS
62
5
100
AcDb2dPolyline
66
1
10
0.0
20
0.0
30
0.0
70
1
0
VERTEX
5
746
100
AcDbEntity
8
1
100
AcDbVertex
100
AcDb2dVertex
62
5
10
286.850082
20
894.468556
0
VERTEX
5
747
100
AcDbEntity
8
1
100
AcDbVertex
100
AcDb2dVertex
62
5
10
286.850082
20
893.898254
0
VERTEX
5
748
100
AcDbEntity
8
1
100
AcDbVertex
100
AcDb2dVertex
62
5
10
286.879781
20
893.868556
0
VERTEX
5
749
100
AcDbEntity
8
1
100
AcDbVertex
100
AcDb2dVertex
62
5
10
287.820384
20
893.868556
0
VERTEX
5
74a
100
AcDbEntity
8
1
100
AcDbVertex
100
AcDb2dVertex
62
5
10
287.850082
20
893.898254
0
VERTEX
5
74b
100
AcDbEntity
8
1
100
AcDbVertex
100
AcDb2dVertex
62
5
10
287.850082
20
894.468556
0
VERTEX
5
74c
100
AcDbEntity
8
1
100
AcDbVertex
100
AcDb2dVertex
62
5
10
286.850082
20
894.468556
0
SEQEND
5
74d
100
AcDbEntity
8
1
0
LINE
5
74e
100
AcDbEntity
8
1
100
AcDbLine
6
CONTINUOUS
62
5
10
287.650082
20
894.518556
11
287.650082
21
894.468556
0
LINE
5
74f
100
AcDbEntity
8
1
100
AcDbLine
6
HIDDEN
62
5
10
287.650082
20
894.518556
11
287.650082
21
894.968556
0
LINE
5
750
100
AcDbEntity
8
1
100
AcDbLine
6
HIDDEN
62
5
10
287.650082
20
894.518556
11
287.650082
21
894.968556
0
POLYLINE
5
751
100
AcDbEntity
8
1
6
HIDDEN
62
5
100
AcDb2dPolyline
66
1
10
0.0
20
0.0
30
0.0
70
0
0
VERTEX
5
752
100
AcDbEntity
8
1
100
AcDbVertex
100
AcDb2dVertex
62
5
10
287.100082
20
894.968556
0
VERTEX
5
753
100
AcDbEntity
8
1
100
AcDbVertex
100
AcDb2dVertex
62
5
10
287.100082
20
894.518556
0
VERTEX
5
754
100
AcDbEntity
8
1
100
AcDbVertex
100
AcDb2dVertex
62
5
10
287.600082
20
894.518556
0
VERTEX
5
755
100
AcDbEntity
8
1
100
AcDbVertex
100
AcDb2dVertex
62
5
10
287.600082
20
894.968556
0
SEQEND
5
756
100
AcDbEntity
8
1
0
POLYLINE
5
757
100
AcDbEntity
8
1
6
CONTINUOUS
62
5
100
AcDb2dPolyline
66
1
10
0.0
20
0.0
30
0.0
70
0
0
VERTEX
5
758
100
AcDbEntity
8
1
100
AcDbVertex
100
AcDb2dVertex
62
5
10
287.650082
20
894.968556
0
VERTEX
5
759
100
AcDbEntity
8
1
100
AcDbVertex
100
AcDb2dVertex
62
5
10
287.650082
20
895.096431
0
VERTEX
5
75a
100
AcDbEntity
8
1
100
AcDbVertex
100
AcDb2dVertex
62
5
10
287.577957
20
895.168556
0
VERTEX
5
75b
100
AcDbEntity
8
1
100
AcDbVertex
100
AcDb2dVertex
62
5
10
287.122207
20
895.168556
0
VERTEX
5
75c
100
AcDbEntity
8
1
100
AcDbVertex
100
AcDb2dVertex
62
5
10
287.050082
20
895.096431
0
VERTEX
5
75d
100
AcDbEntity
8
1
100
AcDbVertex
100
AcDb2dVertex
62
5
10
287.050082
20
894.968556
0
SEQEND
5
75e
100
AcDbEntity
8
1
0
LINE
5
75f
100
AcDbEntity
8
1
100
AcDbLine
6
CONTINUOUS
62
5
10
287.595932
20
894.968556
11
287.595932
21
895.150581
0
LINE
5
760
100
AcDbEntity
8
1
100
AcDbLine
6
CONTINUOUS
62
5
10
287.650082
20
895.096431
11
287.050082
21
895.096431
0
CIRCLE
5
761
100
AcDbEntity
8
1
100
AcDbCircle
6
CONTINUOUS
62
5
10
284.350082
20
878.028556
40
3.000000
0
CIRCLE
5
762
100
AcDbEntity
8
1
100
AcDbCircle
6
DASHED
62
5
10
284.350082
20
873.778556
40
0.475000
0
CIRCLE
5
763
100
AcDbEntity
8
1
100
AcDbCircle
6
CONTINUOUS
62
5
10
284.350082
20
873.778556
40
0.275000
0
ARC
5
764
100
AcDbEntity
8
1
100
AcDbCircle
6
CONTINUOUS
62
5
10
284.350082
20
878.028556
40
2.000000
100
AcDbArc
50
79.999999
51
-99.999999
0
LINE
5
765
100
AcDbEntity
8
1
100
AcDbLine
6
CONTINUOUS
62
5
10
284.002786
20
876.058940
11
284.002786
21
876.058940
0
ARC
5
766
100
AcDbEntity
8
1
100
AcDbCircle
6
CONTINUOUS
62
5
10
284.350082
20
878.028556
40
2.000000
100
AcDbArc
50
-99.999999
51
79.999999
0
LINE
5
767
100
AcDbEntity
8
1
100
AcDbLine
6
CONTINUOUS
62
5
10
284.697378
20
879.998171
11
284.697378
21
879.998171
0
CIRCLE
5
768
100
AcDbEntity
8
1
100
AcDbCircle
6
DASHED
62
5
10
280.100082
20
878.028556
40
0.475000
0
CIRCLE
5
769
100
AcDbEntity
8
1
100
AcDbCircle
6
CONTINUOUS
62
5
10
280.100082
20
878.028556
40
0.275000
0
CIRCLE
5
76a
100
AcDbEntity
8
1
100
AcDbCircle
6
DASHED
62
5
10
284.350082
20
882.278556
40
0.475000
0
CIRCLE
5
76b
100
AcDbEntity
8
1
100
AcDbCircle
6
CONTINUOUS
62
5
10
284.350082
20
882.278556
40
0.275000
0
CIRCLE
5
76c
100
AcDbEntity
8
1
100
AcDbCircle
6
CONTINUOUS
62
5
10
280.600082
20
884.523746
40
0.390000
0
CIRCLE
5
76d
100
AcDbEntity
8
1
100
AcDbCircle
6
CONTINUOUS
62
5
10
280.600082
20
884.523746
40
0.425000
0
POLYLINE
5
76e
100
AcDbEntity
8
1
6
CONTINUOUS
62
5
100
AcDb2dPolyline
66
1
10
0.0
20
0.0
30
0.0
70
1
0
VERTEX
5
76f
100
AcDbEntity
8
1
100
AcDbVertex
100
AcDb2dVertex
62
5
10
280.715552
20
884.323746
0
VERTEX
5
770
100
AcDbEntity
8
1
100
AcDbVertex
100
AcDb2dVertex
62
5
10
280.484612
20
884.323746
0
VERTEX
5
771
100
AcDbEntity
8
1
100
AcDbVertex
100
AcDb2dVertex
62
5
10
280.369142
20
884.523746
0
VERTEX
5
772
100
AcDbEntity
8
1
100
AcDbVertex
100
AcDb2dVertex
62
5
10
280.484612
20
884.723746
0
VERTEX
5
773
100
AcDbEntity
8
1
100
AcDbVertex
100
AcDb2dVertex
62
5
10
280.715552
20
884.723746
0
VERTEX
5
774
100
AcDbEntity
8
1
100
AcDbVertex
100
AcDb2dVertex
62
5
10
280.831022
20
884.523746
0
VERTEX
5
775
100
AcDbEntity
8
1
100
AcDbVertex
100
AcDb2dVertex
62
5
10
280.715552
20
884.323746
0
SEQEND
5
776
100
AcDbEntity
8
1
0
POLYLINE
5
777
100
AcDbEntity
8
1
6
CONTINUOUS
62
5
100
AcDb2dPolyline
66
1
10
0.0
20
0.0
30
0.0
70
0
0
VERTEX
5
778
100
AcDbEntity
8
1
100
AcDbVertex
100
AcDb2dVertex
62
5
10
278.850082
20
895.168556
0
VERTEX
5
779
100
AcDbEntity
8
1
100
AcDbVertex
100
AcDb2dVertex
62
5
10
280.350082
20
895.168556
0
VERTEX
5
77a
100
AcDbEntity
8
1
100
AcDbVertex
100
AcDb2dVertex
62
5
10
280.350082
20
894.518556
0
VERTEX
5
77b
100
AcDbEntity
8
1
100
AcDbVertex
100
AcDb2dVertex
62
5
10
288.350082
20
894.518556
0
VERTEX
5
77c
100
AcDbEntity
8
1
100
AcDbVertex
100
AcDb2dVertex
62
5
10
288.350082
20
895.168556
0
VERTEX
5
77d
100
AcDbEntity
8
1
100
AcDbVertex
100
AcDb2dVertex
62
5
10
289.850082
20
895.168556
0
SEQEND
5
77e
100
AcDbEntity
8
1
0
LINE
5
77f
100
AcDbEntity
8
1
100
AcDbLine
6
CONTINUOUS
62
5
10
280.350082
20
894.968556
11
288.350082
21
894.968556
0
LINE
5
780
100
AcDbEntity
8
6
100
AcDbLine
6
CONTINUOUS
62
5
10
284.350082
20
895.168556
11
289.430682
21
895.168556
0
CIRCLE
5
781
100
AcDbEntity
8
1
100
AcDbCircle
6
CONTINUOUS
62
5
10
284.350082
20
878.028556
40
5.000000
0
CIRCLE
5
782
100
AcDbEntity
8
1
100
AcDbCircle
6
DASHED
62
5
10
288.600082
20
878.028556
40
0.475000
0
CIRCLE
5
783
100
AcDbEntity
8
1
100
AcDbCircle
6
CONTINUOUS
62
5
10
288.600082
20
878.028556
40
0.275000
0
CIRCLE
5
784
100
AcDbEntity
8
1
100
AcDbCircle
6
CONTINUOUS
62
5
10
288.100082
20
884.523746
40
0.390000
0
CIRCLE
5
785
100
AcDbEntity
8
1
100
AcDbCircle
6
CONTINUOUS
62
5
10
288.100082
20
884.523746
40
0.425000
0
POLYLINE
5
786
100
AcDbEntity
8
1
6
CONTINUOUS
62
5
100
AcDb2dPolyline
66
1
10
0.0
20
0.0
30
0.0
70
1
0
VERTEX
5
787
100
AcDbEntity
8
1
100
AcDbVertex
100
AcDb2dVertex
62
5
10
287.984612
20
884.323746
0
VERTEX
5
788
100
AcDbEntity
8
1
100
AcDbVertex
100
AcDb2dVertex
62
5
10
287.869142
20
884.523746
0
VERTEX
5
789
100
AcDbEntity
8
1
100
AcDbVertex
100
AcDb2dVertex
62
5
10
287.984612
20
884.723746
0
VERTEX
5
78a
100
AcDbEntity
8
1
100
AcDbVertex
100
AcDb2dVertex
62
5
10
288.215552
20
884.723746
0
VERTEX
5
78b
100
AcDbEntity
8
1
100
AcDbVertex
100
AcDb2dVertex
62
5
10
288.331022
20
884.523746
0
VERTEX
5
78c
100
AcDbEntity
8
1
100
AcDbVertex
100
AcDb2dVertex
62
5
10
288.215552
20
884.323746
0
VERTEX
5
78d
100
AcDbEntity
8
1
100
AcDbVertex
100
AcDb2dVertex
62
5
10
287.984612
20
884.323746
0
SEQEND
5
78e
100
AcDbEntity
8
1
0
ARC
5
78f
100
AcDbEntity
8
1
100
AcDbCircle
6
CONTINUOUS
62
5
10
294.350025
20
891.642769
40
1.000000
100
AcDbArc
50
-45.000000
51
0.000000
0
LINE
5
790
100
AcDbEntity
8
1
100
AcDbLine
6
CONTINUOUS
62
5
10
295.350025
20
891.642769
11
295.350049
21
899.777072
0
LINE
5
791
100
AcDbEntity
8
1
100
AcDbLine
6
CONTINUOUS
62
5
10
293.320082
20
889.164436
11
295.057132
21
890.935662
0
POLYLINE
5
792
100
AcDbEntity
8
1
6
CONTINUOUS
62
5
100
AcDb2dPolyline
66
1
10
0.0
20
0.0
30
0.0
70
0
0
VERTEX
5
793
100
AcDbEntity
8
1
100
AcDbVertex
100
AcDb2dVertex
62
5
10
293.350082
20
899.318557
0
VERTEX
5
794
100
AcDbEntity
8
1
100
AcDbVertex
100
AcDb2dVertex
62
5
10
293.350082
20
894.134176
0
VERTEX
5
795
100
AcDbEntity
8
1
100
AcDbVertex
100
AcDb2dVertex
62
5
10
295.350082
20
894.134176
0
VERTEX
5
796
100
AcDbEntity
8
1
100
AcDbVertex
100
AcDb2dVertex
62
5
10
295.350082
20
899.777072
0
SEQEND
5
797
100
AcDbEntity
8
1
0
CIRCLE
5
798
100
AcDbEntity
8
1
100
AcDbCircle
6
CONTINUOUS
62
5
10
294.350082
20
896.128404
40
0.390000
0
CIRCLE
5
799
100
AcDbEntity
8
1
100
AcDbCircle
6
CONTINUOUS
62
5
10
294.350082
20
896.128404
40
0.425000
0
POLYLINE
5
79a
100
AcDbEntity
8
1
6
CONTINUOUS
62
5
100
AcDb2dPolyline
66
1
10
0.0
20
0.0
30
0.0
70
1
0
VERTEX
5
79b
100
AcDbEntity
8
1
100
AcDbVertex
100
AcDb2dVertex
62
5
10
294.350082
20
896.359344
0
VERTEX
5
79c
100
AcDbEntity
8
1
100
AcDbVertex
100
AcDb2dVertex
62
5
10
294.550082
20
896.243874
0
VERTEX
5
79d
100
AcDbEntity
8
1
100
AcDbVertex
100
AcDb2dVertex
62
5
10
294.550082
20
896.012934
0
VERTEX
5
79e
100
AcDbEntity
8
1
100
AcDbVertex
100
AcDb2dVertex
62
5
10
294.350082
20
895.897464
0
VERTEX
5
79f
100
AcDbEntity
8
1
100
AcDbVertex
100
AcDb2dVertex
62
5
10
294.150082
20
896.012934
0
VERTEX
5
7a0
100
AcDbEntity
8
1
100
AcDbVertex
100
AcDb2dVertex
62
5
10
294.150082
20
896.243874
0
VERTEX
5
7a1
100
AcDbEntity
8
1
100
AcDbVertex
100
AcDb2dVertex
62
5
10
294.350082
20
896.359344
0
SEQEND
5
7a2
100
AcDbEntity
8
1
0
LINE
5
7a3
100
AcDbEntity
8
6
100
AcDbLine
6
CONTINUOUS
62
5
10
280.150082
20
895.668558
11
280.650082
21
895.168558
0
LINE
5
7a4
100
AcDbEntity
8
6
100
AcDbLine
6
CONTINUOUS
62
5
10
280.150082
20
895.668558
11
280.150082
21
896.349708
0
CIRCLE
5
7a5
100
AcDbEntity
8
6
100
AcDbCircle
6
CONTINUOUS
62
5
10
279.550082
20
895.718532
40
0.245850
0
CIRCLE
5
7a6
100
AcDbEntity
8
1
100
AcDbCircle
6
CONTINUOUS
62
5
10
279.225082
20
896.543556
40
0.594000
0
CIRCLE
5
7a7
100
AcDbEntity
8
1
100
AcDbCircle
6
CONTINUOUS
62
5
10
279.225082
20
896.543556
40
0.650000
0
POLYLINE
5
7a8
100
AcDbEntity
8
1
6
CONTINUOUS
62
5
100
AcDb2dPolyline
66
1
10
0.0
20
0.0
30
0.0
70
1
0
VERTEX
5
7a9
100
AcDbEntity
8
1
100
AcDbVertex
100
AcDb2dVertex
62
5
10
279.225082
20
896.889966
0
VERTEX
5
7aa
100
AcDbEntity
8
1
100
AcDbVertex
100
AcDb2dVertex
62
5
10
279.525082
20
896.716761
0
VERTEX
5
7ab
100
AcDbEntity
8
1
100
AcDbVertex
100
AcDb2dVertex
62
5
10
279.525082
20
896.370351
0
VERTEX
5
7ac
100
AcDbEntity
8
1
100
AcDbVertex
100
AcDb2dVertex
62
5
10
279.225082
20
896.197145
0
VERTEX
5
7ad
100
AcDbEntity
8
1
100
AcDbVertex
100
AcDb2dVertex
62
5
10
278.925082
20
896.370351
0
VERTEX
5
7ae
100
AcDbEntity
8
1
100
AcDbVertex
100
AcDb2dVertex
62
5
10
278.925082
20
896.716761
0
VERTEX
5
7af
100
AcDbEntity
8
1
100
AcDbVertex
100
AcDb2dVertex
62
5
10
279.225082
20
896.889966
0
SEQEND
5
7b0
100
AcDbEntity
8
1
0
ARC
5
7b1
100
AcDbEntity
8
6
100
AcDbCircle
6
CONTINUOUS
62
5
10
284.350082
20
901.668556
40
8.250000
100
AcDbArc
50
-141.987723
51
-128.012278
0
ARC
5
7b2
100
AcDbEntity
8
6
100
AcDbCircle
6
CONTINUOUS
62
5
10
279.350082
20
896.349708
40
0.800000
100
AcDbArc
50
0.000030
51
46.769806
0
CIRCLE
5
7b3
100
AcDbEntity
8
1
100
AcDbCircle
6
CONTINUOUS
62
5
10
289.475082
20
896.543556
40
0.594000
0
CIRCLE
5
7b4
100
AcDbEntity
8
1
100
AcDbCircle
6
CONTINUOUS
62
5
10
289.475082
20
896.543556
40
0.650000
0
POLYLINE
5
7b5
100
AcDbEntity
8
1
6
CONTINUOUS
62
5
100
AcDb2dPolyline
66
1
10
0.0
20
0.0
30
0.0
70
1
0
VERTEX
5
7b6
100
AcDbEntity
8
1
100
AcDbVertex
100
AcDb2dVertex
62
5
10
289.475082
20
896.889966
0
VERTEX
5
7b7
100
AcDbEntity
8
1
100
AcDbVertex
100
AcDb2dVertex
62
5
10
289.775082
20
896.716761
0
VERTEX
5
7b8
100
AcDbEntity
8
1
100
AcDbVertex
100
AcDb2dVertex
62
5
10
289.775082
20
896.370351
0
VERTEX
5
7b9
100
AcDbEntity
8
1
100
AcDbVertex
100
AcDb2dVertex
62
5
10
289.475082
20
896.197145
0
VERTEX
5
7ba
100
AcDbEntity
8
1
100
AcDbVertex
100
AcDb2dVertex
62
5
10
289.175082
20
896.370351
0
VERTEX
5
7bb
100
AcDbEntity
8
1
100
AcDbVertex
100
AcDb2dVertex
62
5
10
289.175082
20
896.716761
0
VERTEX
5
7bc
100
AcDbEntity
8
1
100
AcDbVertex
100
AcDb2dVertex
62
5
10
289.475082
20
896.889966
0
SEQEND
5
7bd
100
AcDbEntity
8
1
0
ARC
5
7be
100
AcDbEntity
8
6
100
AcDbCircle
6
CONTINUOUS
62
5
10
284.350082
20
901.668556
40
8.250000
100
AcDbArc
50
-51.987720
51
-38.012275
0
LINE
5
7bf
100
AcDbEntity
8
6
100
AcDbLine
6
CONTINUOUS
62
5
10
288.550082
20
895.668556
11
288.050082
21
895.168556
0
ARC
5
7c0
100
AcDbEntity
8
6
100
AcDbCircle
6
CONTINUOUS
62
5
10
289.350082
20
896.349721
40
0.800000
100
AcDbArc
50
133.230220
51
-179.999998
0
LINE
5
7c1
100
AcDbEntity
8
6
100
AcDbLine
6
CONTINUOUS
62
5
10
288.550082
20
895.668556
11
288.550082
21
896.349733
0
LINE
5
7c2
100
AcDbEntity
8
6
100
AcDbLine
6
CONTINUOUS
62
5
10
287.950082
20
896.084026
11
287.950082
21
895.853086
0
LINE
5
7c3
100
AcDbEntity
8
6
100
AcDbLine
6
CONTINUOUS
62
5
10
287.950082
20
895.853086
11
287.750082
21
895.737616
0
LINE
5
7c4
100
AcDbEntity
8
6
100
AcDbLine
6
CONTINUOUS
62
5
10
287.950082
20
896.084026
11
287.750082
21
896.199496
0
LINE
5
7c5
100
AcDbEntity
8
6
100
AcDbLine
6
CONTINUOUS
62
5
10
287.550082
20
896.084026
11
287.550082
21
895.853086
0
CIRCLE
5
7c6
100
AcDbEntity
8
6
100
AcDbCircle
6
CONTINUOUS
62
5
10
287.750082
20
895.968556
40
0.375000
0
CIRCLE
5
7c7
100
AcDbEntity
8
6
100
AcDbCircle
6
CONTINUOUS
62
5
10
287.750082
20
895.968556
40
0.475000
0
LINE
5
7c8
100
AcDbEntity
8
6
100
AcDbLine
6
CONTINUOUS
62
5
10
287.750082
20
895.737616
11
287.550082
21
895.853086
0
LINE
5
7c9
100
AcDbEntity
8
6
100
AcDbLine
6
CONTINUOUS
62
5
10
287.750082
20
896.199496
11
287.550082
21
896.084026
0
LINE
5
7ca
100
AcDbEntity
8
1
100
AcDbLine
6
CONTINUOUS
62
5
10
274.850082
20
909.134176
11
274.850082
21
910.628556
0
CIRCLE
5
7cb
100
AcDbEntity
8
1
100
AcDbCircle
6
CONTINUOUS
62
5
10
274.350082
20
901.625222
40
0.390000
0
CIRCLE
5
7cc
100
AcDbEntity
8
1
100
AcDbCircle
6
CONTINUOUS
62
5
10
274.350082
20
901.625222
40
0.425000
0
POLYLINE
5
7cd
100
AcDbEntity
8
1
6
CONTINUOUS
62
5
100
AcDb2dPolyline
66
1
10
0.0
20
0.0
30
0.0
70
1
0
VERTEX
5
7ce
100
AcDbEntity
8
1
100
AcDbVertex
100
AcDb2dVertex
62
5
10
274.350082
20
901.856162
0
VERTEX
5
7cf
100
AcDbEntity
8
1
100
AcDbVertex
100
AcDb2dVertex
62
5
10
274.550082
20
901.740692
0
VERTEX
5
7d0
100
AcDbEntity
8
1
100
AcDbVertex
100
AcDb2dVertex
62
5
10
274.550082
20
901.509752
0
VERTEX
5
7d1
100
AcDbEntity
8
1
100
AcDbVertex
100
AcDb2dVertex
62
5
10
274.350082
20
901.394282
0
VERTEX
5
7d2
100
AcDbEntity
8
1
100
AcDbVertex
100
AcDb2dVertex
62
5
10
274.150082
20
901.509752
0
VERTEX
5
7d3
100
AcDbEntity
8
1
100
AcDbVertex
100
AcDb2dVertex
62
5
10
274.150082
20
901.740692
0
VERTEX
5
7d4
100
AcDbEntity
8
1
100
AcDbVertex
100
AcDb2dVertex
62
5
10
274.350082
20
901.856162
0
SEQEND
5
7d5
100
AcDbEntity
8
1
0
CIRCLE
5
7d6
100
AcDbEntity
8
1
100
AcDbCircle
6
CONTINUOUS
62
5
10
274.350082
20
907.128556
40
0.390000
0
CIRCLE
5
7d7
100
AcDbEntity
8
1
100
AcDbCircle
6
CONTINUOUS
62
5
10
274.350082
20
907.128556
40
0.425000
0
POLYLINE
5
7d8
100
AcDbEntity
8
1
6
CONTINUOUS
62
5
100
AcDb2dPolyline
66
1
10
0.0
20
0.0
30
0.0
70
1
0
VERTEX
5
7d9
100
AcDbEntity
8
1
100
AcDbVertex
100
AcDb2dVertex
62
5
10
274.350082
20
907.359496
0
VERTEX
5
7da
100
AcDbEntity
8
1
100
AcDbVertex
100
AcDb2dVertex
62
5
10
274.550082
20
907.244026
0
VERTEX
5
7db
100
AcDbEntity
8
1
100
AcDbVertex
100
AcDb2dVertex
62
5
10
274.550082
20
907.013086
0
VERTEX
5
7dc
100
AcDbEntity
8
1
100
AcDbVertex
100
AcDb2dVertex
62
5
10
274.350082
20
906.897616
0
VERTEX
5
7dd
100
AcDbEntity
8
1
100
AcDbVertex
100
AcDb2dVertex
62
5
10
274.150082
20
907.013086
0
VERTEX
5
7de
100
AcDbEntity
8
1
100
AcDbVertex
100
AcDb2dVertex
62
5
10
274.150082
20
907.244026
0
VERTEX
5
7df
100
AcDbEntity
8
1
100
AcDbVertex
100
AcDb2dVertex
62
5
10
274.350082
20
907.359496
0
SEQEND
5
7e0
100
AcDbEntity
8
1
0
LINE
5
7e1
100
AcDbEntity
8
1
100
AcDbLine
6
CONTINUOUS
62
5
10
274.850082
20
892.628556
11
274.850082
21
894.134176
0
LINE
5
7e2
100
AcDbEntity
8
1
100
AcDbLine
6
CONTINUOUS
62
5
10
275.173408
20
889.028556
11
275.173408
21
889.128556
0
ARC
5
7e3
100
AcDbEntity
8
1
100
AcDbCircle
6
CONTINUOUS
62
5
10
275.767627
20
886.997706
40
0.201614
100
AcDbArc
50
94.992350
51
139.533081
0
LINE
5
7e4
100
AcDbEntity
8
1
100
AcDbLine
6
CONTINUOUS
62
5
10
275.750082
20
887.128556
11
275.750082
21
887.198556
0
LINE
5
7e5
100
AcDbEntity
8
1
100
AcDbLine
6
CONTINUOUS
62
5
10
274.350082
20
887.128556
11
274.700618
21
887.128556
0
POLYLINE
5
7e6
100
AcDbEntity
8
1
6
CONTINUOUS
62
5
100
AcDb2dPolyline
66
1
10
0.0
20
0.0
30
0.0
70
1
0
VERTEX
5
7e7
100
AcDbEntity
8
1
100
AcDbVertex
100
AcDb2dVertex
62
5
10
274.900484
20
888.828556
0
VERTEX
5
7e8
100
AcDbEntity
8
1
100
AcDbVertex
100
AcDb2dVertex
62
5
10
275.560840
20
887.410282
0
SEQEND
5
7e9
100
AcDbEntity
8
1
0
LINE
5
7ea
100
AcDbEntity
8
1
100
AcDbLine
6
CONTINUOUS
62
5
10
274.600484
20
887.128556
11
274.600484
21
888.628958
0
POLYLINE
5
7eb
100
AcDbEntity
8
1
6
CONTINUOUS
62
5
100
AcDb2dPolyline
66
1
10
0.0
20
0.0
30
0.0
70
0
0
VERTEX
5
7ec
100
AcDbEntity
8
1
100
AcDbVertex
100
AcDb2dVertex
62
5
10
274.350082
20
887.128556
0
VERTEX
5
7ed
100
AcDbEntity
8
1
100
AcDbVertex
100
AcDb2dVertex
62
5
10
274.350082
20
888.066826
0
VERTEX
5
7ee
100
AcDbEntity
8
1
100
AcDbVertex
100
AcDb2dVertex
62
5
10
274.350082
20
888.378556
0
VERTEX
5
7ef
100
AcDbEntity
8
1
100
AcDbVertex
100
AcDb2dVertex
62
5
10
274.600484
20
888.628958
0
SEQEND
5
7f0
100
AcDbEntity
8
1
0
LINE
5
7f1
100
AcDbEntity
8
1
100
AcDbLine
6
HIDDEN
62
5
10
274.600484
20
887.128556
11
274.600484
21
888.628958
0
ARC
5
7f2
100
AcDbEntity
8
1
100
AcDbCircle
6
DASHED
62
5
10
274.900618
20
888.828556
40
0.200000
100
AcDbArc
50
89.999999
51
179.999998
0
LINE
5
7f3
100
AcDbEntity
8
1
100
AcDbLine
6
DASHED
62
5
10
274.900618
20
889.028556
11
275.450484
21
889.028556
0
LINE
5
7f4
100
AcDbEntity
8
1
100
AcDbLine
6
DASHED
62
5
10
274.700618
20
887.128556
11
274.700618
21
888.828556
0
ARC
5
7f5
100
AcDbEntity
8
1
100
AcDbCircle
6
DASHED
62
5
10
274.900618
20
888.828556
40
0.200000
100
AcDbArc
50
89.999999
51
179.999998
0
LINE
5
7f6
100
AcDbEntity
8
1
100
AcDbLine
6
DASHED
62
5
10
274.900618
20
889.028556
11
275.450484
21
889.028556
0
LINE
5
7f7
100
AcDbEntity
8
1
100
AcDbLine
6
DASHED
62
5
10
274.700618
20
887.128556
11
274.700618
21
888.828556
0
LINE
5
7f8
100
AcDbEntity
8
1
100
AcDbLine
6
CONTINUOUS
62
5
10
273.645843
20
887.624316
11
273.642975
21
890.935662
0
LINE
5
7f9
100
AcDbEntity
8
1
100
AcDbLine
6
CONTINUOUS
62
5
10
274.350082
20
879.028556
11
273.350082
21
879.028556
0
LINE
5
7fa
100
AcDbEntity
8
1
100
AcDbLine
6
CONTINUOUS
62
5
10
273.350082
20
880.128556
11
274.350082
21
880.128556
0
LINE
5
7fb
100
AcDbEntity
8
1
100
AcDbLine
6
CONTINUOUS
62
5
10
275.250082
20
887.128027
11
275.250082
21
873.417307
0
POLYLINE
5
7fc
100
AcDbEntity
8
1
6
CONTINUOUS
62
5
100
AcDb2dPolyline
66
1
10
0.0
20
0.0
30
0.0
70
1
0
VERTEX
5
7fd
100
AcDbEntity
8
1
100
AcDbVertex
100
AcDb2dVertex
62
5
10
273.350082
20
909.134176
0
VERTEX
5
7fe
100
AcDbEntity
8
1
100
AcDbVertex
100
AcDb2dVertex
62
5
10
273.350082
20
894.134176
0
VERTEX
5
7ff
100
AcDbEntity
8
1
100
AcDbVertex
100
AcDb2dVertex
62
5
10
275.350082
20
894.134176
0
VERTEX
5
800
100
AcDbEntity
8
1
100
AcDbVertex
100
AcDb2dVertex
62
5
10
275.350082
20
909.134176
0
SEQEND
5
801
100
AcDbEntity
8
1
0
CIRCLE
5
802
100
AcDbEntity
8
1
100
AcDbCircle
6
CONTINUOUS
62
5
10
274.350082
20
896.128556
40
0.390000
0
CIRCLE
5
803
100
AcDbEntity
8
1
100
AcDbCircle
6
CONTINUOUS
62
5
10
274.350082
20
896.128556
40
0.425000
0
POLYLINE
5
804
100
AcDbEntity
8
1
6
CONTINUOUS
62
5
100
AcDb2dPolyline
66
1
10
0.0
20
0.0
30
0.0
70
1
0
VERTEX
5
805
100
AcDbEntity
8
1
100
AcDbVertex
100
AcDb2dVertex
62
5
10
274.350082
20
896.359496
0
VERTEX
5
806
100
AcDbEntity
8
1
100
AcDbVertex
100
AcDb2dVertex
62
5
10
274.550082
20
896.244026
0
VERTEX
5
807
100
AcDbEntity
8
1
100
AcDbVertex
100
AcDb2dVertex
62
5
10
274.550082
20
896.013086
0
VERTEX
5
808
100
AcDbEntity
8
1
100
AcDbVertex
100
AcDb2dVertex
62
5
10
274.350082
20
895.897616
0
VERTEX
5
809
100
AcDbEntity
8
1
100
AcDbVertex
100
AcDb2dVertex
62
5
10
274.150082
20
896.013086
0
VERTEX
5
80a
100
AcDbEntity
8
1
100
AcDbVertex
100
AcDb2dVertex
62
5
10
274.150082
20
896.244026
0
VERTEX
5
80b
100
AcDbEntity
8
1
100
AcDbVertex
100
AcDb2dVertex
62
5
10
274.350082
20
896.359496
0
SEQEND
5
80c
100
AcDbEntity
8
1
0
POLYLINE
5
80d
100
AcDbEntity
8
1
6
CONTINUOUS
62
5
100
AcDb2dPolyline
66
1
10
0.0
20
0.0
30
0.0
70
0
0
VERTEX
5
80e
100
AcDbEntity
8
1
100
AcDbVertex
100
AcDb2dVertex
62
5
10
278.850082
20
895.168556
0
VERTEX
5
80f
100
AcDbEntity
8
1
100
AcDbVertex
100
AcDb2dVertex
62
5
10
278.850082
20
892.968556
0
VERTEX
5
810
100
AcDbEntity
8
1
100
AcDbVertex
100
AcDb2dVertex
62
5
10
278.750082
20
892.868556
0
VERTEX
5
811
100
AcDbEntity
8
1
100
AcDbVertex
100
AcDb2dVertex
62
5
10
275.850082
20
892.868556
0
VERTEX
5
812
100
AcDbEntity
8
1
100
AcDbVertex
100
AcDb2dVertex
62
5
10
274.850082
20
893.868556
0
SEQEND
5
813
100
AcDbEntity
8
1
0
POLYLINE
5
814
100
AcDbEntity
8
1
6
CONTINUOUS
62
5
100
AcDb2dPolyline
66
1
10
0.0
20
0.0
30
0.0
70
0
0
VERTEX
5
815
100
AcDbEntity
8
1
100
AcDbVertex
100
AcDb2dVertex
62
5
10
278.850082
20
907.968556
0
VERTEX
5
816
100
AcDbEntity
8
1
100
AcDbVertex
100
AcDb2dVertex
62
5
10
278.850082
20
910.368556
0
VERTEX
5
817
100
AcDbEntity
8
1
100
AcDbVertex
100
AcDb2dVertex
62
5
10
278.750082
20
910.468556
0
VERTEX
5
818
100
AcDbEntity
8
1
100
AcDbVertex
100
AcDb2dVertex
62
5
10
275.850082
20
910.468556
0
VERTEX
5
819
100
AcDbEntity
8
1
100
AcDbVertex
100
AcDb2dVertex
62
5
10
274.850082
20
909.468556
0
SEQEND
5
81a
100
AcDbEntity
8
1
0
ARC
5
81b
100
AcDbEntity
8
1
100
AcDbCircle
6
CONTINUOUS
62
5
10
273.650082
20
910.328556
40
0.300000
100
AcDbArc
50
89.999999
51
179.999998
0
LINE
5
81c
100
AcDbEntity
8
1
100
AcDbLine
6
CONTINUOUS
62
5
10
273.350082
20
910.328556
11
273.350082
21
892.928556
0
ARC
5
81d
100
AcDbEntity
8
1
100
AcDbCircle
6
CONTINUOUS
62
5
10
273.650082
20
892.928556
40
0.300000
100
AcDbArc
50
179.999998
51
-89.999999
0
LINE
5
81e
100
AcDbEntity
8
1
100
AcDbLine
6
CONTINUOUS
62
5
10
273.650082
20
892.628556
11
295.050055
21
892.628556
0
ARC
5
81f
100
AcDbEntity
8
1
100
AcDbCircle
6
CONTINUOUS
62
5
10
295.050055
20
892.928556
40
0.300000
100
AcDbArc
50
-89.999999
51
0.000000
0
LINE
5
820
100
AcDbEntity
8
1
100
AcDbLine
6
CONTINUOUS
62
5
10
295.350055
20
892.928556
11
295.350055
21
899.777072
0
LINE
5
821
100
AcDbEntity
8
1
100
AcDbLine
6
CONTINUOUS
62
5
10
280.350082
20
910.628556
11
273.650082
21
910.628556
0
ARC
5
822
100
AcDbEntity
8
1
100
AcDbCircle
6
CONTINUOUS
62
5
10
294.850082
20
910.909782
40
0.500000
100
AcDbArc
50
0.000000
51
45.000000
0
LINE
5
823
100
AcDbEntity
8
1
100
AcDbLine
6
CONTINUOUS
62
5
10
295.203635
20
911.263336
11
292.485798
21
913.981173
0
ARC
5
824
100
AcDbEntity
8
1
100
AcDbCircle
6
CONTINUOUS
62
5
10
292.132245
20
913.627619
40
0.500000
100
AcDbArc
50
45.000000
51
86.999999
0
LINE
5
825
100
AcDbEntity
8
1
100
AcDbLine
6
CONTINUOUS
62
5
10
292.158413
20
914.126934
11
287.539615
21
914.368995
0
ARC
5
826
100
AcDbEntity
8
1
100
AcDbCircle
6
CONTINUOUS
62
5
10
287.550082
20
914.568721
40
0.200000
100
AcDbArc
50
179.999998
51
-92.999999
0
POLYLINE
5
827
100
AcDbEntity
8
1
6
CONTINUOUS
62
5
100
AcDb2dPolyline
66
1
10
0.0
20
0.0
30
0.0
70
0
0
VERTEX
5
828
100
AcDbEntity
8
1
100
AcDbVertex
100
AcDb2dVertex
62
5
10
287.350082
20
914.568721
0
VERTEX
5
829
100
AcDbEntity
8
1
100
AcDbVertex
100
AcDb2dVertex
62
5
10
287.350082
20
914.628556
0
VERTEX
5
82a
100
AcDbEntity
8
1
100
AcDbVertex
100
AcDb2dVertex
62
5
10
281.350082
20
914.628556
0
VERTEX
5
82b
100
AcDbEntity
8
1
100
AcDbVertex
100
AcDb2dVertex
62
5
10
281.350082
20
914.568721
0
SEQEND
5
82c
100
AcDbEntity
8
1
0
ARC
5
82d
100
AcDbEntity
8
1
100
AcDbCircle
6
CONTINUOUS
62
5
10
281.150082
20
914.568721
40
0.200000
100
AcDbArc
50
-86.999999
51
0.000000
0
LINE
5
82e
100
AcDbEntity
8
1
100
AcDbLine
6
CONTINUOUS
62
5
10
281.160549
20
914.368995
11
276.541751
21
914.126934
0
ARC
5
82f
100
AcDbEntity
8
1
100
AcDbCircle
6
CONTINUOUS
62
5
10
276.567919
20
913.627619
40
0.500000
100
AcDbArc
50
92.999999
51
134.999999
0
POLYLINE
5
830
100
AcDbEntity
8
1
6
CONTINUOUS
62
5
100
AcDb2dPolyline
66
1
10
0.0
20
0.0
30
0.0
70
0
0
VERTEX
5
831
100
AcDbEntity
8
1
100
AcDbVertex
100
AcDb2dVertex
62
5
10
276.214366
20
913.981173
0
VERTEX
5
832
100
AcDbEntity
8
1
100
AcDbVertex
100
AcDb2dVertex
62
5
10
276.203635
20
913.970442
0
VERTEX
5
833
100
AcDbEntity
8
1
100
AcDbVertex
100
AcDb2dVertex
62
5
10
273.496529
20
911.263336
0
SEQEND
5
834
100
AcDbEntity
8
1
0
ARC
5
835
100
AcDbEntity
8
1
100
AcDbCircle
6
CONTINUOUS
62
5
10
273.850082
20
910.909782
40
0.500000
100
AcDbArc
50
134.999999
51
179.999998
0
LINE
5
836
100
AcDbEntity
8
1
100
AcDbLine
6
CONTINUOUS
62
5
10
273.350082
20
910.909782
11
273.350082
21
891.642769
0
ARC
5
837
100
AcDbEntity
8
1
100
AcDbCircle
6
CONTINUOUS
62
5
10
274.350082
20
891.642769
40
1.000000
100
AcDbArc
50
179.999998
51
-134.999999
0
LINE
5
838
100
AcDbEntity
8
1
100
AcDbLine
6
CONTINUOUS
62
5
10
273.642975
20
890.935662
11
275.394509
21
889.184129
0
LINE
5
839
100
AcDbEntity
8
1
100
AcDbLine
6
CONTINUOUS
62
5
10
295.350060
20
903.586935
11
295.350082
21
910.909782
0
CIRCLE
5
83a
100
AcDbEntity
8
1
100
AcDbCircle
6
CONTINUOUS
62
5
10
276.850082
20
878.028556
40
0.390000
0
CIRCLE
5
83b
100
AcDbEntity
8
1
100
AcDbCircle
6
CONTINUOUS
62
5
10
276.850082
20
878.028556
40
0.425000
0
POLYLINE
5
83c
100
AcDbEntity
8
1
6
CONTINUOUS
62
5
100
AcDb2dPolyline
66
1
10
0.0
20
0.0
30
0.0
70
1
0
VERTEX
5
83d
100
AcDbEntity
8
1
100
AcDbVertex
100
AcDb2dVertex
62
5
10
277.081022
20
878.028556
0
VERTEX
5
83e
100
AcDbEntity
8
1
100
AcDbVertex
100
AcDb2dVertex
62
5
10
276.965552
20
877.828556
0
VERTEX
5
83f
100
AcDbEntity
8
1
100
AcDbVertex
100
AcDb2dVertex
62
5
10
276.734612
20
877.828556
0
VERTEX
5
840
100
AcDbEntity
8
1
100
AcDbVertex
100
AcDb2dVertex
62
5
10
276.619142
20
878.028556
0
VERTEX
5
841
100
AcDbEntity
8
1
100
AcDbVertex
100
AcDb2dVertex
62
5
10
276.734612
20
878.228556
0
VERTEX
5
842
100
AcDbEntity
8
1
100
AcDbVertex
100
AcDb2dVertex
62
5
10
276.965552
20
878.228556
0
VERTEX
5
843
100
AcDbEntity
8
1
100
AcDbVertex
100
AcDb2dVertex
62
5
10
277.081022
20
878.028556
0
SEQEND
5
844
100
AcDbEntity
8
1
0
LINE
5
845
100
AcDbEntity
8
1
100
AcDbLine
6
DOT2
62
5
10
297.633018
20
878.028556
11
271.915518
21
878.028556
0
POLYLINE
5
846
100
AcDbEntity
8
1
6
CONTINUOUS
62
5
100
AcDb2dPolyline
66
1
10
0.0
20
0.0
30
0.0
70
0
0
VERTEX
5
847
100
AcDbEntity
8
1
100
AcDbVertex
100
AcDb2dVertex
62
5
10
294.350082
20
875.601583
0
VERTEX
5
848
100
AcDbEntity
8
1
100
AcDbVertex
100
AcDb2dVertex
62
5
10
294.350082
20
887.128027
0
VERTEX
5
849
100
AcDbEntity
8
1
100
AcDbVertex
100
AcDb2dVertex
62
5
10
274.350082
20
887.128027
0
VERTEX
5
84a
100
AcDbEntity
8
1
100
AcDbVertex
100
AcDb2dVertex
62
5
10
274.350082
20
875.601583
0
SEQEND
5
84b
100
AcDbEntity
8
1
0
POLYLINE
5
84c
100
AcDbEntity
8
1
6
CONTINUOUS
62
5
100
AcDb2dPolyline
66
1
10
0.0
20
0.0
30
0.0
70
1
0
VERTEX
5
84d
100
AcDbEntity
8
1
100
AcDbVertex
100
AcDb2dVertex
62
5
10
275.750082
20
887.128556
0
VERTEX
5
84e
100
AcDbEntity
8
1
100
AcDbVertex
100
AcDb2dVertex
62
5
10
292.950082
20
887.128556
0
VERTEX
5
84f
100
AcDbEntity
8
1
100
AcDbVertex
100
AcDb2dVertex
62
5
10
292.950082
20
887.228556
0
VERTEX
5
850
100
AcDbEntity
8
1
100
AcDbVertex
100
AcDb2dVertex
62
5
10
275.750082
20
887.228556
0
SEQEND
5
851
100
AcDbEntity
8
1
0
LINE
5
852
100
AcDbEntity
8
1
100
AcDbLine
6
CONTINUOUS
62
5
10
293.085921
20
887.128556
11
294.099680
21
887.128556
0
LINE
5
853
100
AcDbEntity
8
1
100
AcDbLine
6
CONTINUOUS
62
5
10
274.350082
20
887.128556
11
275.614243
21
887.128556
0
LINE
5
854
100
AcDbEntity
8
1
100
AcDbLine
6
CONTINUOUS
62
5
10
275.750082
20
887.128556
11
292.950082
21
887.128556
0
ARC
5
855
100
AcDbEntity
8
1
100
AcDbCircle
6
CONTINUOUS
62
5
10
294.200082
20
888.428154
40
0.200000
100
AcDbArc
50
0.000000
51
45.000000
0
POLYLINE
5
856
100
AcDbEntity
8
1
6
CONTINUOUS
62
5
100
AcDb2dPolyline
66
1
10
0.0
20
0.0
30
0.0
70
0
0
VERTEX
5
857
100
AcDbEntity
8
1
100
AcDbVertex
100
AcDb2dVertex
62
5
10
294.400082
20
888.428154
0
VERTEX
5
858
100
AcDbEntity
8
1
100
AcDbVertex
100
AcDb2dVertex
62
5
10
294.400082
20
880.428556
0
VERTEX
5
859
100
AcDbEntity
8
1
100
AcDbVertex
100
AcDb2dVertex
62
5
10
294.500082
20
880.428556
0
VERTEX
5
85a
100
AcDbEntity
8
1
100
AcDbVertex
100
AcDb2dVertex
62
5
10
294.500082
20
888.428154
0
SEQEND
5
85b
100
AcDbEntity
8
1
0
ARC
5
85c
100
AcDbEntity
8
1
100
AcDbCircle
6
CONTINUOUS
62
5
10
294.200082
20
888.428154
40
0.300000
100
AcDbArc
50
0.000000
51
45.000000
0
LINE
5
85d
100
AcDbEntity
8
1
100
AcDbLine
6
CONTINUOUS
62
5
10
294.412214
20
888.640286
11
294.011812
21
889.040688
0
ARC
5
85e
100
AcDbEntity
8
1
100
AcDbCircle
6
CONTINUOUS
62
5
10
293.799680
20
888.828556
40
0.300000
100
AcDbArc
50
45.000000
51
89.999999
0
LINE
5
85f
100
AcDbEntity
8
1
100
AcDbLine
6
CONTINUOUS
62
5
10
293.799680
20
889.128556
11
274.900484
21
889.128556
0
ARC
5
860
100
AcDbEntity
8
1
100
AcDbCircle
6
CONTINUOUS
62
5
10
274.900484
20
888.828556
40
0.300000
100
AcDbArc
50
89.999999
51
134.999999
0
LINE
5
861
100
AcDbEntity
8
1
100
AcDbLine
6
CONTINUOUS
62
5
10
274.688352
20
889.040688
11
274.287950
21
888.640286
0
ARC
5
862
100
AcDbEntity
8
1
100
AcDbCircle
6
CONTINUOUS
62
5
10
274.500082
20
888.428154
40
0.300000
100
AcDbArc
50
134.999999
51
-179.999998
0
POLYLINE
5
863
100
AcDbEntity
8
1
6
CONTINUOUS
62
5
100
AcDb2dPolyline
66
1
10
0.0
20
0.0
30
0.0
70
0
0
VERTEX
5
864
100
AcDbEntity
8
1
100
AcDbVertex
100
AcDb2dVertex
62
5
10
274.200082
20
888.428154
0
VERTEX
5
865
100
AcDbEntity
8
1
100
AcDbVertex
100
AcDb2dVertex
62
5
10
274.200082
20
880.428556
0
VERTEX
5
866
100
AcDbEntity
8
1
100
AcDbVertex
100
AcDb2dVertex
62
5
10
274.200082
20
888.128556
0
VERTEX
5
867
100
AcDbEntity
8
1
100
AcDbVertex
100
AcDb2dVertex
62
5
10
274.200082
20
880.428556
0
VERTEX
5
868
100
AcDbEntity
8
1
100
AcDbVertex
100
AcDb2dVertex
62
5
10
274.300082
20
880.428556
0
VERTEX
5
869
100
AcDbEntity
8
1
100
AcDbVertex
100
AcDb2dVertex
62
5
10
274.300082
20
888.428154
0
SEQEND
5
86a
100
AcDbEntity
8
1
0
ARC
5
86b
100
AcDbEntity
8
1
100
AcDbCircle
6
CONTINUOUS
62
5
10
274.500082
20
888.428154
40
0.200000
100
AcDbArc
50
134.999999
51
-179.999998
0
LINE
5
86c
100
AcDbEntity
8
1
100
AcDbLine
6
CONTINUOUS
62
5
10
274.358661
20
888.569575
11
274.600484
21
888.811398
0
LINE
5
86d
100
AcDbEntity
8
1
100
AcDbLine
6
CONTINUOUS
62
5
10
294.099680
20
888.811398
11
294.341503
21
888.569575
0
ARC
5
86e
100
AcDbEntity
8
1
100
AcDbCircle
6
DASHED
62
5
10
293.799546
20
888.828556
40
0.200000
100
AcDbArc
50
-0.000000
51
89.999999
0
LINE
5
86f
100
AcDbEntity
8
1
100
AcDbLine
6
DASHED
62
5
10
293.999546
20
888.828556
11
293.999546
21
887.128556
0
LINE
5
870
100
AcDbEntity
8
1
100
AcDbLine
6
DASHED
62
5
10
275.450484
20
889.028556
11
293.799546
21
889.028556
0
ARC
5
871
100
AcDbEntity
8
1
100
AcDbCircle
6
CONTINUOUS
62
5
10
293.799680
20
888.828556
40
0.300000
100
AcDbArc
50
-0.000000
51
89.999999
0
LINE
5
872
100
AcDbEntity
8
1
100
AcDbLine
6
CONTINUOUS
62
5
10
293.799680
20
889.128556
11
274.900484
21
889.128556
0
ARC
5
873
100
AcDbEntity
8
1
100
AcDbCircle
6
CONTINUOUS
62
5
10
274.900484
20
888.828556
40
0.300000
100
AcDbArc
50
89.999999
51
179.999998
0
LINE
5
874
100
AcDbEntity
8
1
100
AcDbLine
6
CONTINUOUS
62
5
10
274.600484
20
888.828556
11
274.600484
21
888.628958
0
LINE
5
875
100
AcDbEntity
8
1
100
AcDbLine
6
CONTINUOUS
62
5
10
274.600484
20
887.128556
11
274.700618
21
887.128556
0
LINE
5
876
100
AcDbEntity
8
1
100
AcDbLine
6
CONTINUOUS
62
5
10
294.099680
20
888.699668
11
294.099680
21
888.828556
0
LINE
5
877
100
AcDbEntity
8
1
100
AcDbLine
6
CONTINUOUS
62
5
10
294.350082
20
867.228556
11
294.350082
21
864.828556
0
LINE
5
878
100
AcDbEntity
8
0
100
AcDbLine
6
DOT2
62
5
10
293.850082
20
868.142819
11
293.850082
21
864.113012
0
ARC
5
879
100
AcDbEntity
8
1
100
AcDbCircle
6
CONTINUOUS
62
5
10
292.150082
20
867.528556
40
0.300000
100
AcDbArc
50
179.999998
51
-89.999999
0
LINE
5
87a
100
AcDbEntity
8
1
100
AcDbLine
6
CONTINUOUS
62
5
10
292.150082
20
867.228556
11
295.350082
21
867.228556
0
LINE
5
87b
100
AcDbEntity
8
1
100
AcDbLine
6
CONTINUOUS
62
5
10
291.850082
20
868.141781
11
291.850082
21
867.528556
0
LINE
5
87c
100
AcDbEntity
8
1
100
AcDbLine
6
CONTINUOUS
62
5
10
274.350082
20
867.228556
11
274.350082
21
864.828556
0
LINE
5
87d
100
AcDbEntity
8
0
100
AcDbLine
6
DOT2
62
5
10
274.850082
20
868.142819
11
274.850082
21
864.113012
0
ARC
5
87e
100
AcDbEntity
8
1
100
AcDbCircle
6
CONTINUOUS
62
5
10
276.550082
20
867.528556
40
0.300000
100
AcDbArc
50
-89.999999
51
0.000000
0
LINE
5
87f
100
AcDbEntity
8
1
100
AcDbLine
6
CONTINUOUS
62
5
10
276.850082
20
867.528556
11
276.850082
21
868.979050
0
LINE
5
880
100
AcDbEntity
8
1
100
AcDbLine
6
CONTINUOUS
62
5
10
273.350082
20
867.228556
11
276.550082
21
867.228556
0
POLYLINE
5
881
100
AcDbEntity
8
1
6
DIVIDE
62
5
100
AcDb2dPolyline
66
1
10
0.0
20
0.0
30
0.0
70
0
0
VERTEX
5
882
100
AcDbEntity
8
1
100
AcDbVertex
100
AcDb2dVertex
62
5
10
333.171653
20
878.028556
0
VERTEX
5
883
100
AcDbEntity
8
1
100
AcDbVertex
100
AcDb2dVertex
62
5
10
333.171653
20
871.978556
0
VERTEX
5
884
100
AcDbEntity
8
1
100
AcDbVertex
100
AcDb2dVertex
62
5
10
333.371653
20
871.778556
0
VERTEX
5
885
100
AcDbEntity
8
1
100
AcDbVertex
100
AcDb2dVertex
62
5
10
334.402701
20
871.778556
0
SEQEND
5
886
100
AcDbEntity
8
1
0
POLYLINE
5
887
100
AcDbEntity
8
1
6
DIVIDE
62
5
100
AcDb2dPolyline
66
1
10
0.0
20
0.0
30
0.0
70
0
0
VERTEX
5
888
100
AcDbEntity
8
1
100
AcDbVertex
100
AcDb2dVertex
62
5
10
334.402701
20
884.278556
0
VERTEX
5
889
100
AcDbEntity
8
1
100
AcDbVertex
100
AcDb2dVertex
62
5
10
333.371653
20
884.278556
0
VERTEX
5
88a
100
AcDbEntity
8
1
100
AcDbVertex
100
AcDb2dVertex
62
5
10
333.171653
20
884.078556
0
VERTEX
5
88b
100
AcDbEntity
8
1
100
AcDbVertex
100
AcDb2dVertex
62
5
10
333.171653
20
878.028556
0
SEQEND
5
88c
100
AcDbEntity
8
1
0
CIRCLE
5
88d
100
AcDbEntity
8
1
100
AcDbCircle
6
CONTINUOUS
62
5
10
284.350082
20
878.028556
40
6.750000
0
CIRCLE
5
88e
100
AcDbEntity
8
1
100
AcDbCircle
6
CONTINUOUS
62
5
10
284.350082
20
878.028556
40
6.250000
0
ARC
5
88f
100
AcDbEntity
8
1
100
AcDbCircle
6
CONTINUOUS
62
5
10
284.350082
20
878.028556
40
11.000000
100
AcDbArc
50
179.999998
51
-135.213155
0
LINE
5
890
100
AcDbEntity
8
1
100
AcDbLine
6
CONTINUOUS
62
5
10
273.350082
20
882.014342
11
273.350082
21
878.028556
0
CIRCLE
5
891
100
AcDbEntity
8
1
100
AcDbCircle
6
CONTINUOUS
62
5
10
280.600082
20
871.533365
40
0.390000
0
CIRCLE
5
892
100
AcDbEntity
8
1
100
AcDbCircle
6
CONTINUOUS
62
5
10
280.600082
20
871.533365
40
0.425000
0
POLYLINE
5
893
100
AcDbEntity
8
1
6
CONTINUOUS
62
5
100
AcDb2dPolyline
66
1
10
0.0
20
0.0
30
0.0
70
1
0
VERTEX
5
894
100
AcDbEntity
8
1
100
AcDbVertex
100
AcDb2dVertex
62
5
10
280.715552
20
871.733365
0
VERTEX
5
895
100
AcDbEntity
8
1
100
AcDbVertex
100
AcDb2dVertex
62
5
10
280.831022
20
871.533365
0
VERTEX
5
896
100
AcDbEntity
8
1
100
AcDbVertex
100
AcDb2dVertex
62
5
10
280.715552
20
871.333365
0
VERTEX
5
897
100
AcDbEntity
8
1
100
AcDbVertex
100
AcDb2dVertex
62
5
10
280.484612
20
871.333365
0
VERTEX
5
898
100
AcDbEntity
8
1
100
AcDbVertex
100
AcDb2dVertex
62
5
10
280.369142
20
871.533365
0
VERTEX
5
899
100
AcDbEntity
8
1
100
AcDbVertex
100
AcDb2dVertex
62
5
10
280.484612
20
871.733365
0
VERTEX
5
89a
100
AcDbEntity
8
1
100
AcDbVertex
100
AcDb2dVertex
62
5
10
280.715552
20
871.733365
0
SEQEND
5
89b
100
AcDbEntity
8
1
0
LINE
5
89c
100
AcDbEntity
8
1
100
AcDbLine
6
DOT2
62
5
10
280.320767
20
871.049576
11
280.881166
21
872.020218
0
CIRCLE
5
89d
100
AcDbEntity
8
1
100
AcDbCircle
6
DOT2
62
5
10
288.100082
20
871.533365
40
0.200000
0
CIRCLE
5
89e
100
AcDbEntity
8
1
100
AcDbCircle
6
CONTINUOUS
62
5
10
288.100082
20
871.533365
40
0.390000
0
CIRCLE
5
89f
100
AcDbEntity
8
1
100
AcDbCircle
6
CONTINUOUS
62
5
10
288.100082
20
871.533365
40
0.425000
0
POLYLINE
5
8a0
100
AcDbEntity
8
1
6
CONTINUOUS
62
5
100
AcDb2dPolyline
66
1
10
0.0
20
0.0
30
0.0
70
1
0
VERTEX
5
8a1
100
AcDbEntity
8
1
100
AcDbVertex
100
AcDb2dVertex
62
5
10
287.984612
20
871.733365
0
VERTEX
5
8a2
100
AcDbEntity
8
1
100
AcDbVertex
100
AcDb2dVertex
62
5
10
288.215552
20
871.733365
0
VERTEX
5
8a3
100
AcDbEntity
8
1
100
AcDbVertex
100
AcDb2dVertex
62
5
10
288.331022
20
871.533365
0
VERTEX
5
8a4
100
AcDbEntity
8
1
100
AcDbVertex
100
AcDb2dVertex
62
5
10
288.215552
20
871.333365
0
VERTEX
5
8a5
100
AcDbEntity
8
1
100
AcDbVertex
100
AcDb2dVertex
62
5
10
287.984612
20
871.333365
0
VERTEX
5
8a6
100
AcDbEntity
8
1
100
AcDbVertex
100
AcDb2dVertex
62
5
10
287.869142
20
871.533365
0
VERTEX
5
8a7
100
AcDbEntity
8
1
100
AcDbVertex
100
AcDb2dVertex
62
5
10
287.984612
20
871.733365
0
SEQEND
5
8a8
100
AcDbEntity
8
1
0
LINE
5
8a9
100
AcDbEntity
8
1
100
AcDbLine
6
DOT2
62
5
10
287.826116
20
872.007888
11
288.377083
21
871.053585
0
CIRCLE
5
8aa
100
AcDbEntity
8
1
100
AcDbCircle
6
CONTINUOUS
62
5
10
284.350082
20
878.028556
40
9.100000
0
CIRCLE
5
8ab
100
AcDbEntity
8
1
100
AcDbCircle
6
CONTINUOUS
62
5
10
284.350082
20
878.028556
40
9.100000
0
ARC
5
8ac
100
AcDbEntity
8
1
100
AcDbCircle
6
CONTINUOUS
62
5
10
284.350082
20
878.028556
40
11.000000
100
AcDbArc
50
-44.786843
51
-0.000000
0
LINE
5
8ad
100
AcDbEntity
8
1
100
AcDbLine
6
CONTINUOUS
62
5
10
295.350082
20
878.028556
11
295.350082
21
882.014342
0
LINE
5
8ae
100
AcDbEntity
8
1
100
AcDbLine
6
DOT2
62
5
10
284.350082
20
915.984185
11
284.350082
21
863.502435
0
ARC
5
8af
100
AcDbEntity
8
1
100
AcDbCircle
6
CONTINUOUS
62
5
10
292.150082
20
868.128556
40
0.300000
100
AcDbArc
50
179.999998
51
-109.471220
0
POLYLINE
5
8b0
100
AcDbEntity
8
1
6
CONTINUOUS
62
5
100
AcDb2dPolyline
66
1
10
0.0
20
0.0
30
0.0
70
0
0
VERTEX
5
8b1
100
AcDbEntity
8
1
100
AcDbVertex
100
AcDb2dVertex
62
5
10
292.050082
20
867.845713
0
VERTEX
5
8b2
100
AcDbEntity
8
1
100
AcDbVertex
100
AcDb2dVertex
62
5
10
292.050082
20
867.528556
0
VERTEX
5
8b3
100
AcDbEntity
8
1
100
AcDbVertex
100
AcDb2dVertex
62
5
10
295.350082
20
867.528556
0
VERTEX
5
8b4
100
AcDbEntity
8
1
100
AcDbVertex
100
AcDb2dVertex
62
5
10
295.350082
20
864.828556
0
VERTEX
5
8b5
100
AcDbEntity
8
1
100
AcDbVertex
100
AcDb2dVertex
62
5
10
273.350082
20
864.828556
0
VERTEX
5
8b6
100
AcDbEntity
8
1
100
AcDbVertex
100
AcDb2dVertex
62
5
10
273.350082
20
867.528556
0
VERTEX
5
8b7
100
AcDbEntity
8
1
100
AcDbVertex
100
AcDb2dVertex
62
5
10
276.650082
20
867.528556
0
VERTEX
5
8b8
100
AcDbEntity
8
1
100
AcDbVertex
100
AcDb2dVertex
62
5
10
276.650082
20
867.845713
0
SEQEND
5
8b9
100
AcDbEntity
8
1
0
ARC
5
8ba
100
AcDbEntity
8
1
100
AcDbCircle
6
CONTINUOUS
62
5
10
276.550082
20
868.128556
40
0.300000
100
AcDbArc
50
-70.528779
51
-4.781504
0
POLYLINE
5
8bb
100
AcDbEntity
8
1
6
CONTINUOUS
62
5
100
AcDb2dPolyline
66
1
10
0.0
20
0.0
30
0.0
70
0
0
VERTEX
5
8bc
100
AcDbEntity
8
1
100
AcDbVertex
100
AcDb2dVertex
62
5
10
276.849038
20
868.103549
0
VERTEX
5
8bd
100
AcDbEntity
8
1
100
AcDbVertex
100
AcDb2dVertex
62
5
10
276.850082
20
869.534151
0
VERTEX
5
8be
100
AcDbEntity
8
1
100
AcDbVertex
100
AcDb2dVertex
62
5
10
273.350082
20
878.028556
0
VERTEX
5
8bf
100
AcDbEntity
8
1
100
AcDbVertex
100
AcDb2dVertex
62
5
10
273.350082
20
887.328556
0
VERTEX
5
8c0
100
AcDbEntity
8
1
100
AcDbVertex
100
AcDb2dVertex
62
5
10
274.200082
20
888.178556
0
SEQEND
5
8c1
100
AcDbEntity
8
1
0
POLYLINE
5
8c2
100
AcDbEntity
8
1
6
CONTINUOUS
62
5
100
AcDb2dPolyline
66
1
10
0.0
20
0.0
30
0.0
70
0
0
VERTEX
5
8c3
100
AcDbEntity
8
1
100
AcDbVertex
100
AcDb2dVertex
62
5
10
294.500082
20
888.153835
0
VERTEX
5
8c4
100
AcDbEntity
8
1
100
AcDbVertex
100
AcDb2dVertex
62
5
10
295.350082
20
887.328556
0
VERTEX
5
8c5
100
AcDbEntity
8
1
100
AcDbVertex
100
AcDb2dVertex
62
5
10
295.350082
20
878.028556
0
VERTEX
5
8c6
100
AcDbEntity
8
1
100
AcDbVertex
100
AcDb2dVertex
62
5
10
291.850082
20
869.534151
0
VERTEX
5
8c7
100
AcDbEntity
8
1
100
AcDbVertex
100
AcDb2dVertex
62
5
10
291.850082
20
868.128556
0
SEQEND
5
8c8
100
AcDbEntity
8
1
0
LINE
5
8c9
100
AcDbEntity
8
1
100
AcDbLine
6
DOT2
62
5
10
347.715008
20
948.109876
11
356.816160
21
948.109876
0
POLYLINE
5
8ca
100
AcDbEntity
8
1
6
CONTINUOUS
62
5
100
AcDb2dPolyline
66
1
10
0.0
20
0.0
30
0.0
70
0
0
VERTEX
5
8cb
100
AcDbEntity
8
1
100
AcDbVertex
100
AcDb2dVertex
62
5
10
350.616164
20
948.109876
0
VERTEX
5
8cc
100
AcDbEntity
8
1
100
AcDbVertex
100
AcDb2dVertex
62
5
10
350.616164
20
953.009876
0
VERTEX
5
8cd
100
AcDbEntity
8
1
100
AcDbVertex
100
AcDb2dVertex
62
5
10
350.516164
20
953.109876
0
VERTEX
5
8ce
100
AcDbEntity
8
1
100
AcDbVertex
100
AcDb2dVertex
62
5
10
349.416164
20
953.109876
0
VERTEX
5
8cf
100
AcDbEntity
8
1
100
AcDbVertex
100
AcDb2dVertex
62
5
10
349.316164
20
953.009876
0
VERTEX
5
8d0
100
AcDbEntity
8
1
100
AcDbVertex
100
AcDb2dVertex
62
5
10
349.316164
20
951.859876
0
VERTEX
5
8d1
100
AcDbEntity
8
1
100
AcDbVertex
100
AcDb2dVertex
62
5
10
348.216164
20
951.859876
0
VERTEX
5
8d2
100
AcDbEntity
8
1
100
AcDbVertex
100
AcDb2dVertex
62
5
10
348.116164
20
951.759876
0
VERTEX
5
8d3
100
AcDbEntity
8
1
100
AcDbVertex
100
AcDb2dVertex
62
5
10
348.116164
20
951.209876
0
SEQEND
5
8d4
100
AcDbEntity
8
1
0
LINE
5
8d5
100
AcDbEntity
8
1
100
AcDbLine
6
CONTINUOUS
62
5
10
349.316164
20
951.859876
11
349.316164
21
944.359876
0
LINE
5
8d6
100
AcDbEntity
8
1
100
AcDbLine
6
DOT2
62
5
10
347.492751
20
945.609876
11
349.194951
21
945.609876
0
LINE
5
8d7
100
AcDbEntity
8
1
100
AcDbLine
6
DOT2
62
5
10
347.411134
20
945.609876
11
349.421967
21
945.609876
0
LINE
5
8d8
100
AcDbEntity
8
1
100
AcDbLine
6
DOT2
62
5
10
347.411134
20
950.609876
11
349.421967
21
950.609876
0
POLYLINE
5
8d9
100
AcDbEntity
8
1
6
CONTINUOUS
62
5
100
AcDb2dPolyline
66
1
10
0.0
20
0.0
30
0.0
70
0
0
VERTEX
5
8da
100
AcDbEntity
8
1
100
AcDbVertex
100
AcDb2dVertex
62
5
10
350.616164
20
943.209876
0
VERTEX
5
8db
100
AcDbEntity
8
1
100
AcDbVertex
100
AcDb2dVertex
62
5
10
350.516164
20
943.109876
0
VERTEX
5
8dc
100
AcDbEntity
8
1
100
AcDbVertex
100
AcDb2dVertex
62
5
10
349.416164
20
943.109876
0
VERTEX
5
8dd
100
AcDbEntity
8
1
100
AcDbVertex
100
AcDb2dVertex
62
5
10
349.316164
20
943.209876
0
VERTEX
5
8de
100
AcDbEntity
8
1
100
AcDbVertex
100
AcDb2dVertex
62
5
10
349.316164
20
944.359876
0
VERTEX
5
8df
100
AcDbEntity
8
1
100
AcDbVertex
100
AcDb2dVertex
62
5
10
348.216164
20
944.359876
0
VERTEX
5
8e0
100
AcDbEntity
8
1
100
AcDbVertex
100
AcDb2dVertex
62
5
10
348.116164
20
944.459876
0
VERTEX
5
8e1
100
AcDbEntity
8
1
100
AcDbVertex
100
AcDb2dVertex
62
5
10
348.116164
20
945.009876
0
SEQEND
5
8e2
100
AcDbEntity
8
1
0
POLYLINE
5
8e3
100
AcDbEntity
8
1
6
CONTINUOUS
62
5
100
AcDb2dPolyline
66
1
10
0.0
20
0.0
30
0.0
70
0
0
VERTEX
5
8e4
100
AcDbEntity
8
1
100
AcDbVertex
100
AcDb2dVertex
62
5
10
350.616164
20
873.128556
0
VERTEX
5
8e5
100
AcDbEntity
8
1
100
AcDbVertex
100
AcDb2dVertex
62
5
10
350.516164
20
873.028556
0
VERTEX
5
8e6
100
AcDbEntity
8
1
100
AcDbVertex
100
AcDb2dVertex
62
5
10
349.416164
20
873.028556
0
VERTEX
5
8e7
100
AcDbEntity
8
1
100
AcDbVertex
100
AcDb2dVertex
62
5
10
349.316164
20
873.128556
0
VERTEX
5
8e8
100
AcDbEntity
8
1
100
AcDbVertex
100
AcDb2dVertex
62
5
10
349.316164
20
874.278556
0
VERTEX
5
8e9
100
AcDbEntity
8
1
100
AcDbVertex
100
AcDb2dVertex
62
5
10
348.216164
20
874.278556
0
VERTEX
5
8ea
100
AcDbEntity
8
1
100
AcDbVertex
100
AcDb2dVertex
62
5
10
348.116164
20
874.378556
0
VERTEX
5
8eb
100
AcDbEntity
8
1
100
AcDbVertex
100
AcDb2dVertex
62
5
10
348.116164
20
874.928556
0
SEQEND
5
8ec
100
AcDbEntity
8
1
0
LINE
5
8ed
100
AcDbEntity
8
1
100
AcDbLine
6
DOT2
62
5
10
347.715008
20
878.028556
11
356.816160
21
878.028556
0
POLYLINE
5
8ee
100
AcDbEntity
8
1
6
CONTINUOUS
62
5
100
AcDb2dPolyline
66
1
10
0.0
20
0.0
30
0.0
70
0
0
VERTEX
5
8ef
100
AcDbEntity
8
1
100
AcDbVertex
100
AcDb2dVertex
62
5
10
350.616164
20
878.028556
0
VERTEX
5
8f0
100
AcDbEntity
8
1
100
AcDbVertex
100
AcDb2dVertex
62
5
10
350.616164
20
882.928556
0
VERTEX
5
8f1
100
AcDbEntity
8
1
100
AcDbVertex
100
AcDb2dVertex
62
5
10
350.516164
20
883.028556
0
VERTEX
5
8f2
100
AcDbEntity
8
1
100
AcDbVertex
100
AcDb2dVertex
62
5
10
349.416164
20
883.028556
0
VERTEX
5
8f3
100
AcDbEntity
8
1
100
AcDbVertex
100
AcDb2dVertex
62
5
10
349.316164
20
882.928556
0
VERTEX
5
8f4
100
AcDbEntity
8
1
100
AcDbVertex
100
AcDb2dVertex
62
5
10
349.316164
20
881.778556
0
VERTEX
5
8f5
100
AcDbEntity
8
1
100
AcDbVertex
100
AcDb2dVertex
62
5
10
348.216164
20
881.778556
0
VERTEX
5
8f6
100
AcDbEntity
8
1
100
AcDbVertex
100
AcDb2dVertex
62
5
10
348.116164
20
881.678556
0
VERTEX
5
8f7
100
AcDbEntity
8
1
100
AcDbVertex
100
AcDb2dVertex
62
5
10
348.116164
20
881.128556
0
SEQEND
5
8f8
100
AcDbEntity
8
1
0
LINE
5
8f9
100
AcDbEntity
8
1
100
AcDbLine
6
CONTINUOUS
62
5
10
349.316164
20
881.778556
11
349.316164
21
874.278556
0
LINE
5
8fa
100
AcDbEntity
8
1
100
AcDbLine
6
DOT2
62
5
10
347.411134
20
875.528556
11
349.421967
21
875.528556
0
LINE
5
8fb
100
AcDbEntity
8
1
100
AcDbLine
6
DOT2
62
5
10
347.492751
20
875.528556
11
349.194951
21
875.528556
0
LINE
5
8fc
100
AcDbEntity
8
1
100
AcDbLine
6
DOT2
62
5
10
347.411134
20
880.528556
11
349.421967
21
880.528556
0
LINE
5
8fd
100
AcDbEntity
8
1
100
AcDbLine
6
DOT2
62
5
10
347.373117
20
948.109876
11
426.355184
21
948.109876
0
LINE
5
8fe
100
AcDbEntity
8
1
100
AcDbLine
6
DOT2
62
3
10
425.516181
20
914.347818
11
425.516181
21
923.694261
0
LINE
5
8ff
100
AcDbEntity
8
1
100
AcDbLine
6
DOT2
62
3
10
381.116181
20
901.668553
11
381.116181
21
923.694261
0
POLYLINE
5
900
100
AcDbEntity
8
1
6
DOT2
62
3
100
AcDb2dPolyline
66
1
10
0.0
20
0.0
30
0.0
70
0
0
VERTEX
5
901
100
AcDbEntity
8
1
100
AcDbVertex
100
AcDb2dVertex
62
3
10
403.316181
20
922.694261
0
VERTEX
5
902
100
AcDbEntity
8
1
100
AcDbVertex
100
AcDb2dVertex
62
3
10
381.116181
20
922.694261
0
VERTEX
5
903
100
AcDbEntity
8
1
100
AcDbVertex
100
AcDb2dVertex
62
3
10
384.164181
20
923.202261
0
VERTEX
5
904
100
AcDbEntity
8
1
100
AcDbVertex
100
AcDb2dVertex
62
3
10
384.164181
20
922.186261
0
VERTEX
5
905
100
AcDbEntity
8
1
100
AcDbVertex
100
AcDb2dVertex
62
3
10
381.116181
20
922.694261
0
VERTEX
5
906
100
AcDbEntity
8
1
100
AcDbVertex
100
AcDb2dVertex
62
3
10
384.164181
20
922.948261
0
VERTEX
5
907
100
AcDbEntity
8
1
100
AcDbVertex
100
AcDb2dVertex
62
3
10
384.164181
20
922.440261
0
VERTEX
5
908
100
AcDbEntity
8
1
100
AcDbVertex
100
AcDb2dVertex
62
3
10
381.116181
20
922.694261
0
SEQEND
5
909
100
AcDbEntity
8
1
0
POLYLINE
5
90a
100
AcDbEntity
8
1
6
DOT2
62
3
100
AcDb2dPolyline
66
1
10
0.0
20
0.0
30
0.0
70
0
0
VERTEX
5
90b
100
AcDbEntity
8
1
100
AcDbVertex
100
AcDb2dVertex
62
3
10
403.316181
20
922.694261
0
VERTEX
5
90c
100
AcDbEntity
8
1
100
AcDbVertex
100
AcDb2dVertex
62
3
10
425.516181
20
922.694261
0
VERTEX
5
90d
100
AcDbEntity
8
1
100
AcDbVertex
100
AcDb2dVertex
62
3
10
422.468181
20
922.186261
0
VERTEX
5
90e
100
AcDbEntity
8
1
100
AcDbVertex
100
AcDb2dVertex
62
3
10
422.468181
20
923.202261
0
VERTEX
5
90f
100
AcDbEntity
8
1
100
AcDbVertex
100
AcDb2dVertex
62
3
10
425.516181
20
922.694261
0
VERTEX
5
910
100
AcDbEntity
8
1
100
AcDbVertex
100
AcDb2dVertex
62
3
10
422.468181
20
922.440261
0
VERTEX
5
911
100
AcDbEntity
8
1
100
AcDbVertex
100
AcDb2dVertex
62
3
10
422.468181
20
922.948261
0
VERTEX
5
912
100
AcDbEntity
8
1
100
AcDbVertex
100
AcDb2dVertex
62
3
10
425.516181
20
922.694261
0
SEQEND
5
913
100
AcDbEntity
8
1
0
TEXT
5
914
100
AcDbEntity
8
1
62
3
100
AcDbText
10
398.431061
20
923.394661
40
3.200000
41
0.825
1
(444)
7
STANDARD
72
0
100
AcDbText
0
LINE
5
915
100
AcDbEntity
8
1
100
AcDbLine
6
DOT2
62
3
10
380.516164
20
864.828556
11
380.516164
21
849.661743
0
LINE
5
916
100
AcDbEntity
8
1
100
AcDbLine
6
DOT2
62
3
10
382.516164
20
864.828556
11
382.516164
21
849.661743
0
POLYLINE
5
917
100
AcDbEntity
8
1
6
DOT2
62
3
100
AcDb2dPolyline
66
1
10
0.0
20
0.0
30
0.0
70
0
0
VERTEX
5
918
100
AcDbEntity
8
1
100
AcDbVertex
100
AcDb2dVertex
62
3
10
394.543453
20
850.661743
0
VERTEX
5
919
100
AcDbEntity
8
1
100
AcDbVertex
100
AcDb2dVertex
62
3
10
382.516164
20
850.661743
0
VERTEX
5
91a
100
AcDbEntity
8
1
100
AcDbVertex
100
AcDb2dVertex
62
3
10
385.564164
20
851.169743
0
VERTEX
5
91b
100
AcDbEntity
8
1
100
AcDbVertex
100
AcDb2dVertex
62
3
10
385.564164
20
850.153743
0
VERTEX
5
91c
100
AcDbEntity
8
1
100
AcDbVertex
100
AcDb2dVertex
62
3
10
382.516164
20
850.661743
0
VERTEX
5
91d
100
AcDbEntity
8
1
100
AcDbVertex
100
AcDb2dVertex
62
3
10
385.564164
20
850.915743
0
VERTEX
5
91e
100
AcDbEntity
8
1
100
AcDbVertex
100
AcDb2dVertex
62
3
10
385.564164
20
850.407743
0
VERTEX
5
91f
100
AcDbEntity
8
1
100
AcDbVertex
100
AcDb2dVertex
62
3
10
382.516164
20
850.661743
0
SEQEND
5
920
100
AcDbEntity
8
1
0
LINE
5
921
100
AcDbEntity
8
1
100
AcDbLine
6
DOT2
62
3
10
382.516164
20
850.661743
11
380.516164
21
850.661743
0
POLYLINE
5
922
100
AcDbEntity
8
1
6
DOT2
62
3
100
AcDb2dPolyline
66
1
10
0.0
20
0.0
30
0.0
70
0
0
VERTEX
5
923
100
AcDbEntity
8
1
100
AcDbVertex
100
AcDb2dVertex
62
3
10
375.468164
20
850.661743
0
VERTEX
5
924
100
AcDbEntity
8
1
100
AcDbVertex
100
AcDb2dVertex
62
3
10
380.516164
20
850.661743
0
VERTEX
5
925
100
AcDbEntity
8
1
100
AcDbVertex
100
AcDb2dVertex
62
3
10
377.468164
20
850.153743
0
VERTEX
5
926
100
AcDbEntity
8
1
100
AcDbVertex
100
AcDb2dVertex
62
3
10
377.468164
20
851.169743
0
VERTEX
5
927
100
AcDbEntity
8
1
100
AcDbVertex
100
AcDb2dVertex
62
3
10
380.516164
20
850.661743
0
VERTEX
5
928
100
AcDbEntity
8
1
100
AcDbVertex
100
AcDb2dVertex
62
3
10
377.468164
20
850.407743
0
VERTEX
5
929
100
AcDbEntity
8
1
100
AcDbVertex
100
AcDb2dVertex
62
3
10
377.468164
20
850.915743
0
VERTEX
5
92a
100
AcDbEntity
8
1
100
AcDbVertex
100
AcDb2dVertex
62
3
10
380.516164
20
850.661743
0
SEQEND
5
92b
100
AcDbEntity
8
1
0
TEXT
5
92c
100
AcDbEntity
8
1
62
3
100
AcDbText
10
386.424253
20
851.362143
40
3.200000
41
0.825
1
20H8
7
STANDARD
72
0
100
AcDbText
0
LINE
5
92d
100
AcDbEntity
8
1
100
AcDbLine
6
DOT2
62
3
10
363.016164
20
863.933569
11
363.016164
21
838.641226
0
LINE
5
92e
100
AcDbEntity
8
1
100
AcDbLine
6
DOT2
62
3
10
397.016164
20
863.854194
11
397.016164
21
838.641226
0
POLYLINE
5
92f
100
AcDbEntity
8
1
6
DOT2
62
3
100
AcDb2dPolyline
66
1
10
0.0
20
0.0
30
0.0
70
0
0
VERTEX
5
930
100
AcDbEntity
8
1
100
AcDbVertex
100
AcDb2dVertex
62
3
10
380.016164
20
839.641226
0
VERTEX
5
931
100
AcDbEntity
8
1
100
AcDbVertex
100
AcDb2dVertex
62
3
10
363.016164
20
839.641226
0
VERTEX
5
932
100
AcDbEntity
8
1
100
AcDbVertex
100
AcDb2dVertex
62
3
10
366.064164
20
840.149226
0
VERTEX
5
933
100
AcDbEntity
8
1
100
AcDbVertex
100
AcDb2dVertex
62
3
10
366.064164
20
839.133226
0
VERTEX
5
934
100
AcDbEntity
8
1
100
AcDbVertex
100
AcDb2dVertex
62
3
10
363.016164
20
839.641226
0
VERTEX
5
935
100
AcDbEntity
8
1
100
AcDbVertex
100
AcDb2dVertex
62
3
10
366.064164
20
839.895226
0
VERTEX
5
936
100
AcDbEntity
8
1
100
AcDbVertex
100
AcDb2dVertex
62
3
10
366.064164
20
839.387226
0
VERTEX
5
937
100
AcDbEntity
8
1
100
AcDbVertex
100
AcDb2dVertex
62
3
10
363.016164
20
839.641226
0
SEQEND
5
938
100
AcDbEntity
8
1
0
POLYLINE
5
939
100
AcDbEntity
8
1
6
DOT2
62
3
100
AcDb2dPolyline
66
1
10
0.0
20
0.0
30
0.0
70
0
0
VERTEX
5
93a
100
AcDbEntity
8
1
100
AcDbVertex
100
AcDb2dVertex
62
3
10
380.016164
20
839.641226
0
VERTEX
5
93b
100
AcDbEntity
8
1
100
AcDbVertex
100
AcDb2dVertex
62
3
10
397.016164
20
839.641226
0
VERTEX
5
93c
100
AcDbEntity
8
1
100
AcDbVertex
100
AcDb2dVertex
62
3
10
393.968164
20
839.133226
0
VERTEX
5
93d
100
AcDbEntity
8
1
100
AcDbVertex
100
AcDb2dVertex
62
3
10
393.968164
20
840.149226
0
VERTEX
5
93e
100
AcDbEntity
8
1
100
AcDbVertex
100
AcDb2dVertex
62
3
10
397.016164
20
839.641226
0
VERTEX
5
93f
100
AcDbEntity
8
1
100
AcDbVertex
100
AcDb2dVertex
62
3
10
393.968164
20
839.387226
0
VERTEX
5
940
100
AcDbEntity
8
1
100
AcDbVertex
100
AcDb2dVertex
62
3
10
393.968164
20
839.895226
0
VERTEX
5
941
100
AcDbEntity
8
1
100
AcDbVertex
100
AcDb2dVertex
62
3
10
397.016164
20
839.641226
0
SEQEND
5
942
100
AcDbEntity
8
1
0
TEXT
5
943
100
AcDbEntity
8
1
62
3
100
AcDbText
10
377.307044
20
840.341626
40
3.200000
41
0.825
1
340
7
STANDARD
72
0
100
AcDbText
0
LINE
5
944
100
AcDbEntity
8
1
100
AcDbLine
6
DOT2
62
3
10
390.665274
20
795.128240
11
386.754857
21
795.128240
0
LINE
5
945
100
AcDbEntity
8
1
100
AcDbLine
6
DOT2
62
3
10
390.665274
20
793.128240
11
386.754857
21
793.128240
0
POLYLINE
5
946
100
AcDbEntity
8
1
6
DOT2
62
3
100
AcDb2dPolyline
66
1
10
0.0
20
0.0
30
0.0
70
0
0
VERTEX
5
947
100
AcDbEntity
8
1
100
AcDbVertex
100
AcDb2dVertex
62
3
10
387.754857
20
816.486358
0
VERTEX
5
948
100
AcDbEntity
8
1
100
AcDbVertex
100
AcDb2dVertex
62
3
10
387.754857
20
795.128240
0
VERTEX
5
949
100
AcDbEntity
8
1
100
AcDbVertex
100
AcDb2dVertex
62
3
10
387.246857
20
798.176240
0
VERTEX
5
94a
100
AcDbEntity
8
1
100
AcDbVertex
100
AcDb2dVertex
62
3
10
388.262857
20
798.176240
0
VERTEX
5
94b
100
AcDbEntity
8
1
100
AcDbVertex
100
AcDb2dVertex
62
3
10
387.754857
20
795.128240
0
VERTEX
5
94c
100
AcDbEntity
8
1
100
AcDbVertex
100
AcDb2dVertex
62
3
10
387.500857
20
798.176240
0
VERTEX
5
94d
100
AcDbEntity
8
1
100
AcDbVertex
100
AcDb2dVertex
62
3
10
388.008857
20
798.176240
0
VERTEX
5
94e
100
AcDbEntity
8
1
100
AcDbVertex
100
AcDb2dVertex
62
3
10
387.754857
20
795.128240
0
SEQEND
5
94f
100
AcDbEntity
8
1
0
LINE
5
950
100
AcDbEntity
8
1
100
AcDbLine
6
DOT2
62
3
10
387.754857
20
793.128240
11
387.754857
21
795.128240
0
POLYLINE
5
951
100
AcDbEntity
8
1
6
DOT2
62
3
100
AcDb2dPolyline
66
1
10
0.0
20
0.0
30
0.0
70
0
0
VERTEX
5
952
100
AcDbEntity
8
1
100
AcDbVertex
100
AcDb2dVertex
62
3
10
387.754857
20
788.080240
0
VERTEX
5
953
100
AcDbEntity
8
1
100
AcDbVertex
100
AcDb2dVertex
62
3
10
387.754857
20
793.128240
0
VERTEX
5
954
100
AcDbEntity
8
1
100
AcDbVertex
100
AcDb2dVertex
62
3
10
388.262857
20
790.080240
0
VERTEX
5
955
100
AcDbEntity
8
1
100
AcDbVertex
100
AcDb2dVertex
62
3
10
387.246857
20
790.080240
0
VERTEX
5
956
100
AcDbEntity
8
1
100
AcDbVertex
100
AcDb2dVertex
62
3
10
387.754857
20
793.128240
0
VERTEX
5
957
100
AcDbEntity
8
1
100
AcDbVertex
100
AcDb2dVertex
62
3
10
388.008857
20
790.080240
0
VERTEX
5
958
100
AcDbEntity
8
1
100
AcDbVertex
100
AcDb2dVertex
62
3
10
387.500857
20
790.080240
0
VERTEX
5
959
100
AcDbEntity
8
1
100
AcDbVertex
100
AcDb2dVertex
62
3
10
387.754857
20
793.128240
0
SEQEND
5
95a
100
AcDbEntity
8
1
0
TEXT
5
95b
100
AcDbEntity
8
1
62
3
100
AcDbText
10
387.054457
20
808.367158
40
3.200000
41
0.825
1
20H8
50
90.000000
7
STANDARD
72
0
100
AcDbText
0
LINE
5
95c
100
AcDbEntity
8
1
100
AcDbLine
6
DOT2
62
3
10
362.116164
20
804.928240
11
362.116164
21
809.124707
0
LINE
5
95d
100
AcDbEntity
8
1
100
AcDbLine
6
DOT2
62
3
10
363.916164
20
804.928240
11
363.916164
21
809.124707
0
POLYLINE
5
95e
100
AcDbEntity
8
1
6
DOT2
62
3
100
AcDb2dPolyline
66
1
10
0.0
20
0.0
30
0.0
70
0
0
VERTEX
5
95f
100
AcDbEntity
8
1
100
AcDbVertex
100
AcDb2dVertex
62
3
10
350.017733
20
808.124707
0
VERTEX
5
960
100
AcDbEntity
8
1
100
AcDbVertex
100
AcDb2dVertex
62
3
10
362.116164
20
808.124707
0
VERTEX
5
961
100
AcDbEntity
8
1
100
AcDbVertex
100
AcDb2dVertex
62
3
10
359.068164
20
807.616707
0
VERTEX
5
962
100
AcDbEntity
8
1
100
AcDbVertex
100
AcDb2dVertex
62
3
10
359.068164
20
808.632707
0
VERTEX
5
963
100
AcDbEntity
8
1
100
AcDbVertex
100
AcDb2dVertex
62
3
10
362.116164
20
808.124707
0
VERTEX
5
964
100
AcDbEntity
8
1
100
AcDbVertex
100
AcDb2dVertex
62
3
10
359.068164
20
807.870707
0
VERTEX
5
965
100
AcDbEntity
8
1
100
AcDbVertex
100
AcDb2dVertex
62
3
10
359.068164
20
808.378707
0
VERTEX
5
966
100
AcDbEntity
8
1
100
AcDbVertex
100
AcDb2dVertex
62
3
10
362.116164
20
808.124707
0
SEQEND
5
967
100
AcDbEntity
8
1
0
LINE
5
968
100
AcDbEntity
8
1
100
AcDbLine
6
DOT2
62
3
10
362.116164
20
808.124707
11
363.916164
21
808.124707
0
POLYLINE
5
969
100
AcDbEntity
8
1
6
DOT2
62
3
100
AcDb2dPolyline
66
1
10
0.0
20
0.0
30
0.0
70
0
0
VERTEX
5
96a
100
AcDbEntity
8
1
100
AcDbVertex
100
AcDb2dVertex
62
3
10
368.964164
20
808.124707
0
VERTEX
5
96b
100
AcDbEntity
8
1
100
AcDbVertex
100
AcDb2dVertex
62
3
10
363.916164
20
808.124707
0
VERTEX
5
96c
100
AcDbEntity
8
1
100
AcDbVertex
100
AcDb2dVertex
62
3
10
366.964164
20
808.632707
0
VERTEX
5
96d
100
AcDbEntity
8
1
100
AcDbVertex
100
AcDb2dVertex
62
3
10
366.964164
20
807.616707
0
VERTEX
5
96e
100
AcDbEntity
8
1
100
AcDbVertex
100
AcDb2dVertex
62
3
10
363.916164
20
808.124707
0
VERTEX
5
96f
100
AcDbEntity
8
1
100
AcDbVertex
100
AcDb2dVertex
62
3
10
366.964164
20
808.378707
0
VERTEX
5
970
100
AcDbEntity
8
1
100
AcDbVertex
100
AcDb2dVertex
62
3
10
366.964164
20
807.870707
0
VERTEX
5
971
100
AcDbEntity
8
1
100
AcDbVertex
100
AcDb2dVertex
62
3
10
363.916164
20
808.124707
0
SEQEND
5
972
100
AcDbEntity
8
1
0
TEXT
5
973
100
AcDbEntity
8
1
62
3
100
AcDbText
10
350.813093
20
808.825107
40
3.200000
41
0.825
1
18
7
STANDARD
72
0
100
AcDbText
0
LINE
5
974
100
AcDbEntity
8
0
100
AcDbLine
6
DOT2
62
3
10
358.016164
20
804.128240
11
358.016164
21
814.655323
0
LINE
5
975
100
AcDbEntity
8
0
100
AcDbLine
6
DOT2
62
3
10
363.016164
20
805.829426
11
363.016164
21
814.655323
0
POLYLINE
5
976
100
AcDbEntity
8
0
6
DOT2
62
3
100
AcDb2dPolyline
66
1
10
0.0
20
0.0
30
0.0
70
0
0
VERTEX
5
977
100
AcDbEntity
8
0
100
AcDbVertex
100
AcDb2dVertex
62
3
10
352.968164
20
813.655323
0
VERTEX
5
978
100
AcDbEntity
8
0
100
AcDbVertex
100
AcDb2dVertex
62
3
10
358.016164
20
813.655323
0
VERTEX
5
979
100
AcDbEntity
8
0
100
AcDbVertex
100
AcDb2dVertex
62
3
10
354.968164
20
813.147323
0
VERTEX
5
97a
100
AcDbEntity
8
0
100
AcDbVertex
100
AcDb2dVertex
62
3
10
354.968164
20
814.163323
0
VERTEX
5
97b
100
AcDbEntity
8
0
100
AcDbVertex
100
AcDb2dVertex
62
3
10
358.016164
20
813.655323
0
VERTEX
5
97c
100
AcDbEntity
8
0
100
AcDbVertex
100
AcDb2dVertex
62
3
10
354.968164
20
813.401323
0
VERTEX
5
97d
100
AcDbEntity
8
0
100
AcDbVertex
100
AcDb2dVertex
62
3
10
354.968164
20
813.909323
0
VERTEX
5
97e
100
AcDbEntity
8
0
100
AcDbVertex
100
AcDb2dVertex
62
3
10
358.016164
20
813.655323
0
SEQEND
5
97f
100
AcDbEntity
8
0
0
LINE
5
980
100
AcDbEntity
8
0
100
AcDbLine
6
DOT2
62
3
10
358.016164
20
813.655323
11
363.016164
21
813.655323
0
POLYLINE
5
981
100
AcDbEntity
8
0
6
DOT2
62
3
100
AcDb2dPolyline
66
1
10
0.0
20
0.0
30
0.0
70
0
0
VERTEX
5
982
100
AcDbEntity
8
0
100
AcDbVertex
100
AcDb2dVertex
62
3
10
368.064164
20
813.655323
0
VERTEX
5
983
100
AcDbEntity
8
0
100
AcDbVertex
100
AcDb2dVertex
62
3
10
363.016164
20
813.655323
0
VERTEX
5
984
100
AcDbEntity
8
0
100
AcDbVertex
100
AcDb2dVertex
62
3
10
366.064164
20
814.163323
0
VERTEX
5
985
100
AcDbEntity
8
0
100
AcDbVertex
100
AcDb2dVertex
62
3
10
366.064164
20
813.147323
0
VERTEX
5
986
100
AcDbEntity
8
0
100
AcDbVertex
100
AcDb2dVertex
62
3
10
363.016164
20
813.655323
0
VERTEX
5
987
100
AcDbEntity
8
0
100
AcDbVertex
100
AcDb2dVertex
62
3
10
366.064164
20
813.909323
0
VERTEX
5
988
100
AcDbEntity
8
0
100
AcDbVertex
100
AcDb2dVertex
62
3
10
366.064164
20
813.401323
0
VERTEX
5
989
100
AcDbEntity
8
0
100
AcDbVertex
100
AcDb2dVertex
62
3
10
363.016164
20
813.655323
0
SEQEND
5
98a
100
AcDbEntity
8
0
0
TEXT
5
98b
100
AcDbEntity
8
0
62
3
100
AcDbText
10
358.652142
20
814.355723
40
3.200000
41
0.825
1
50
7
STANDARD
72
0
100
AcDbText
0
LINE
5
98c
100
AcDbEntity
8
0
100
AcDbLine
6
DOT2
62
3
10
358.016164
20
798.328396
11
358.016164
21
789.679532
0
LINE
5
98d
100
AcDbEntity
8
0
100
AcDbLine
6
DOT2
62
3
10
374.516164
20
798.328396
11
374.516164
21
789.679532
0
POLYLINE
5
98e
100
AcDbEntity
8
0
6
DOT2
62
3
100
AcDb2dPolyline
66
1
10
0.0
20
0.0
30
0.0
70
0
0
VERTEX
5
98f
100
AcDbEntity
8
0
100
AcDbVertex
100
AcDb2dVertex
62
3
10
366.397005
20
790.679532
0
VERTEX
5
990
100
AcDbEntity
8
0
100
AcDbVertex
100
AcDb2dVertex
62
3
10
358.016164
20
790.679532
0
VERTEX
5
991
100
AcDbEntity
8
0
100
AcDbVertex
100
AcDb2dVertex
62
3
10
361.064164
20
791.187532
0
VERTEX
5
992
100
AcDbEntity
8
0
100
AcDbVertex
100
AcDb2dVertex
62
3
10
361.064164
20
790.171532
0
VERTEX
5
993
100
AcDbEntity
8
0
100
AcDbVertex
100
AcDb2dVertex
62
3
10
358.016164
20
790.679532
0
VERTEX
5
994
100
AcDbEntity
8
0
100
AcDbVertex
100
AcDb2dVertex
62
3
10
361.064164
20
790.933532
0
VERTEX
5
995
100
AcDbEntity
8
0
100
AcDbVertex
100
AcDb2dVertex
62
3
10
361.064164
20
790.425532
0
VERTEX
5
996
100
AcDbEntity
8
0
100
AcDbVertex
100
AcDb2dVertex
62
3
10
358.016164
20
790.679532
0
SEQEND
5
997
100
AcDbEntity
8
0
0
POLYLINE
5
998
100
AcDbEntity
8
0
6
DOT2
62
3
100
AcDb2dPolyline
66
1
10
0.0
20
0.0
30
0.0
70
0
0
VERTEX
5
999
100
AcDbEntity
8
0
100
AcDbVertex
100
AcDb2dVertex
62
3
10
366.397005
20
790.679532
0
VERTEX
5
99a
100
AcDbEntity
8
0
100
AcDbVertex
100
AcDb2dVertex
62
3
10
374.516164
20
790.679532
0
VERTEX
5
99b
100
AcDbEntity
8
0
100
AcDbVertex
100
AcDb2dVertex
62
3
10
371.468164
20
790.171532
0
VERTEX
5
99c
100
AcDbEntity
8
0
100
AcDbVertex
100
AcDb2dVertex
62
3
10
371.468164
20
791.187532
0
VERTEX
5
99d
100
AcDbEntity
8
0
100
AcDbVertex
100
AcDb2dVertex
62
3
10
374.516164
20
790.679532
0
VERTEX
5
99e
100
AcDbEntity
8
0
100
AcDbVertex
100
AcDb2dVertex
62
3
10
371.468164
20
790.425532
0
VERTEX
5
99f
100
AcDbEntity
8
0
100
AcDbVertex
100
AcDb2dVertex
62
3
10
371.468164
20
790.933532
0
VERTEX
5
9a0
100
AcDbEntity
8
0
100
AcDbVertex
100
AcDb2dVertex
62
3
10
374.516164
20
790.679532
0
SEQEND
5
9a1
100
AcDbEntity
8
0
0
TEXT
5
9a2
100
AcDbEntity
8
0
62
3
100
AcDbText
10
363.687885
20
791.379932
40
3.200000
41
0.825
1
165
7
STANDARD
72
0
100
AcDbText
0
LINE
5
9a3
100
AcDbEntity
8
1
100
AcDbLine
6
DOT2
62
3
10
397.016164
20
802.328240
11
408.769396
21
802.328240
0
LINE
5
9a4
100
AcDbEntity
8
1
100
AcDbLine
6
DOT2
62
3
10
397.016164
20
785.928240
11
408.769396
21
785.928240
0
POLYLINE
5
9a5
100
AcDbEntity
8
1
6
DOT2
62
3
100
AcDb2dPolyline
66
1
10
0.0
20
0.0
30
0.0
70
0
0
VERTEX
5
9a6
100
AcDbEntity
8
1
100
AcDbVertex
100
AcDb2dVertex
62
3
10
407.769396
20
794.128240
0
VERTEX
5
9a7
100
AcDbEntity
8
1
100
AcDbVertex
100
AcDb2dVertex
62
3
10
407.769396
20
785.928240
0
VERTEX
5
9a8
100
AcDbEntity
8
1
100
AcDbVertex
100
AcDb2dVertex
62
3
10
407.261396
20
788.976240
0
VERTEX
5
9a9
100
AcDbEntity
8
1
100
AcDbVertex
100
AcDb2dVertex
62
3
10
408.277396
20
788.976240
0
VERTEX
5
9aa
100
AcDbEntity
8
1
100
AcDbVertex
100
AcDb2dVertex
62
3
10
407.769396
20
785.928240
0
VERTEX
5
9ab
100
AcDbEntity
8
1
100
AcDbVertex
100
AcDb2dVertex
62
3
10
407.515396
20
788.976240
0
VERTEX
5
9ac
100
AcDbEntity
8
1
100
AcDbVertex
100
AcDb2dVertex
62
3
10
408.023396
20
788.976240
0
VERTEX
5
9ad
100
AcDbEntity
8
1
100
AcDbVertex
100
AcDb2dVertex
62
3
10
407.769396
20
785.928240
0
SEQEND
5
9ae
100
AcDbEntity
8
1
0
POLYLINE
5
9af
100
AcDbEntity
8
1
6
DOT2
62
3
100
AcDb2dPolyline
66
1
10
0.0
20
0.0
30
0.0
70
0
0
VERTEX
5
9b0
100
AcDbEntity
8
1
100
AcDbVertex
100
AcDb2dVertex
62
3
10
407.769396
20
794.128240
0
VERTEX
5
9b1
100
AcDbEntity
8
1
100
AcDbVertex
100
AcDb2dVertex
62
3
10
407.769396
20
802.328240
0
VERTEX
5
9b2
100
AcDbEntity
8
1
100
AcDbVertex
100
AcDb2dVertex
62
3
10
408.277396
20
799.280240
0
VERTEX
5
9b3
100
AcDbEntity
8
1
100
AcDbVertex
100
AcDb2dVertex
62
3
10
407.261396
20
799.280240
0
VERTEX
5
9b4
100
AcDbEntity
8
1
100
AcDbVertex
100
AcDb2dVertex
62
3
10
407.769396
20
802.328240
0
VERTEX
5
9b5
100
AcDbEntity
8
1
100
AcDbVertex
100
AcDb2dVertex
62
3
10
408.023396
20
799.280240
0
VERTEX
5
9b6
100
AcDbEntity
8
1
100
AcDbVertex
100
AcDb2dVertex
62
3
10
407.515396
20
799.280240
0
VERTEX
5
9b7
100
AcDbEntity
8
1
100
AcDbVertex
100
AcDb2dVertex
62
3
10
407.769396
20
802.328240
0
SEQEND
5
9b8
100
AcDbEntity
8
1
0
TEXT
5
9b9
100
AcDbEntity
8
1
62
3
100
AcDbText
10
407.068996
20
791.419120
40
3.200000
41
0.825
1
164
50
90.000000
7
STANDARD
72
0
100
AcDbText
0
LINE
5
9ba
100
AcDbEntity
8
0
100
AcDbLine
6
DOT2
62
3
10
401.516164
20
804.128240
11
401.516164
21
814.655323
0
LINE
5
9bb
100
AcDbEntity
8
0
100
AcDbLine
6
DOT2
62
3
10
397.016164
20
806.431825
11
397.016164
21
814.655323
0
POLYLINE
5
9bc
100
AcDbEntity
8
0
6
DOT2
62
3
100
AcDb2dPolyline
66
1
10
0.0
20
0.0
30
0.0
70
0
0
VERTEX
5
9bd
100
AcDbEntity
8
0
100
AcDbVertex
100
AcDb2dVertex
62
3
10
391.968164
20
813.655323
0
VERTEX
5
9be
100
AcDbEntity
8
0
100
AcDbVertex
100
AcDb2dVertex
62
3
10
397.016164
20
813.655323
0
VERTEX
5
9bf
100
AcDbEntity
8
0
100
AcDbVertex
100
AcDb2dVertex
62
3
10
393.968164
20
813.147323
0
VERTEX
5
9c0
100
AcDbEntity
8
0
100
AcDbVertex
100
AcDb2dVertex
62
3
10
393.968164
20
814.163323
0
VERTEX
5
9c1
100
AcDbEntity
8
0
100
AcDbVertex
100
AcDb2dVertex
62
3
10
397.016164
20
813.655323
0
VERTEX
5
9c2
100
AcDbEntity
8
0
100
AcDbVertex
100
AcDb2dVertex
62
3
10
393.968164
20
813.401323
0
VERTEX
5
9c3
100
AcDbEntity
8
0
100
AcDbVertex
100
AcDb2dVertex
62
3
10
393.968164
20
813.909323
0
VERTEX
5
9c4
100
AcDbEntity
8
0
100
AcDbVertex
100
AcDb2dVertex
62
3
10
397.016164
20
813.655323
0
SEQEND
5
9c5
100
AcDbEntity
8
0
0
LINE
5
9c6
100
AcDbEntity
8
0
100
AcDbLine
6
DOT2
62
3
10
397.016164
20
813.655323
11
401.516164
21
813.655323
0
POLYLINE
5
9c7
100
AcDbEntity
8
0
6
DOT2
62
3
100
AcDb2dPolyline
66
1
10
0.0
20
0.0
30
0.0
70
0
0
VERTEX
5
9c8
100
AcDbEntity
8
0
100
AcDbVertex
100
AcDb2dVertex
62
3
10
406.564164
20
813.655323
0
VERTEX
5
9c9
100
AcDbEntity
8
0
100
AcDbVertex
100
AcDb2dVertex
62
3
10
401.516164
20
813.655323
0
VERTEX
5
9ca
100
AcDbEntity
8
0
100
AcDbVertex
100
AcDb2dVertex
62
3
10
404.564164
20
814.163323
0
VERTEX
5
9cb
100
AcDbEntity
8
0
100
AcDbVertex
100
AcDb2dVertex
62
3
10
404.564164
20
813.147323
0
VERTEX
5
9cc
100
AcDbEntity
8
0
100
AcDbVertex
100
AcDb2dVertex
62
3
10
401.516164
20
813.655323
0
VERTEX
5
9cd
100
AcDbEntity
8
0
100
AcDbVertex
100
AcDb2dVertex
62
3
10
404.564164
20
813.909323
0
VERTEX
5
9ce
100
AcDbEntity
8
0
100
AcDbVertex
100
AcDb2dVertex
62
3
10
404.564164
20
813.401323
0
VERTEX
5
9cf
100
AcDbEntity
8
0
100
AcDbVertex
100
AcDb2dVertex
62
3
10
401.516164
20
813.655323
0
SEQEND
5
9d0
100
AcDbEntity
8
0
0
TEXT
5
9d1
100
AcDbEntity
8
0
62
3
100
AcDbText
10
397.906688
20
814.355723
40
3.200000
41
0.825
1
45
7
STANDARD
72
0
100
AcDbText
0
LINE
5
9d2
100
AcDbEntity
8
0
100
AcDbLine
6
DOT2
62
3
10
358.016164
20
804.128240
11
358.016164
21
820.241788
0
LINE
5
9d3
100
AcDbEntity
8
0
100
AcDbLine
6
DOT2
62
3
10
401.516164
20
804.128240
11
401.516164
21
820.241788
0
POLYLINE
5
9d4
100
AcDbEntity
8
0
6
DOT2
62
3
100
AcDb2dPolyline
66
1
10
0.0
20
0.0
30
0.0
70
0
0
VERTEX
5
9d5
100
AcDbEntity
8
0
100
AcDbVertex
100
AcDb2dVertex
62
3
10
378.077042
20
819.241788
0
VERTEX
5
9d6
100
AcDbEntity
8
0
100
AcDbVertex
100
AcDb2dVertex
62
3
10
358.016164
20
819.241788
0
VERTEX
5
9d7
100
AcDbEntity
8
0
100
AcDbVertex
100
AcDb2dVertex
62
3
10
361.064164
20
819.749788
0
VERTEX
5
9d8
100
AcDbEntity
8
0
100
AcDbVertex
100
AcDb2dVertex
62
3
10
361.064164
20
818.733788
0
VERTEX
5
9d9
100
AcDbEntity
8
0
100
AcDbVertex
100
AcDb2dVertex
62
3
10
358.016164
20
819.241788
0
VERTEX
5
9da
100
AcDbEntity
8
0
100
AcDbVertex
100
AcDb2dVertex
62
3
10
361.064164
20
819.495788
0
VERTEX
5
9db
100
AcDbEntity
8
0
100
AcDbVertex
100
AcDb2dVertex
62
3
10
361.064164
20
818.987788
0
VERTEX
5
9dc
100
AcDbEntity
8
0
100
AcDbVertex
100
AcDb2dVertex
62
3
10
358.016164
20
819.241788
0
SEQEND
5
9dd
100
AcDbEntity
8
0
0
POLYLINE
5
9de
100
AcDbEntity
8
0
6
DOT2
62
3
100
AcDb2dPolyline
66
1
10
0.0
20
0.0
30
0.0
70
0
0
VERTEX
5
9df
100
AcDbEntity
8
0
100
AcDbVertex
100
AcDb2dVertex
62
3
10
378.077042
20
819.241788
0
VERTEX
5
9e0
100
AcDbEntity
8
0
100
AcDbVertex
100
AcDb2dVertex
62
3
10
401.516164
20
819.241788
0
VERTEX
5
9e1
100
AcDbEntity
8
0
100
AcDbVertex
100
AcDb2dVertex
62
3
10
398.468164
20
818.733788
0
VERTEX
5
9e2
100
AcDbEntity
8
0
100
AcDbVertex
100
AcDb2dVertex
62
3
10
398.468164
20
819.749788
0
VERTEX
5
9e3
100
AcDbEntity
8
0
100
AcDbVertex
100
AcDb2dVertex
62
3
10
401.516164
20
819.241788
0
VERTEX
5
9e4
100
AcDbEntity
8
0
100
AcDbVertex
100
AcDb2dVertex
62
3
10
398.468164
20
818.987788
0
VERTEX
5
9e5
100
AcDbEntity
8
0
100
AcDbVertex
100
AcDb2dVertex
62
3
10
398.468164
20
819.495788
0
VERTEX
5
9e6
100
AcDbEntity
8
0
100
AcDbVertex
100
AcDb2dVertex
62
3
10
401.516164
20
819.241788
0
SEQEND
5
9e7
100
AcDbEntity
8
0
0
TEXT
5
9e8
100
AcDbEntity
8
0
62
3
100
AcDbText
10
375.367922
20
819.942188
40
3.200000
41
0.825
1
435
7
STANDARD
72
0
100
AcDbText
0
LINE
5
9e9
100
AcDbEntity
8
1
100
AcDbLine
6
DOT2
62
3
10
401.516164
20
864.828556
11
390.247294
21
864.828556
0
LINE
5
9ea
100
AcDbEntity
8
1
100
AcDbLine
6
DOT2
62
3
10
382.516164
20
865.828556
11
392.247294
21
865.828556
0
POLYLINE
5
9eb
100
AcDbEntity
8
1
6
DOT2
62
3
100
AcDb2dPolyline
66
1
10
0.0
20
0.0
30
0.0
70
0
0
VERTEX
5
9ec
100
AcDbEntity
8
1
100
AcDbVertex
100
AcDb2dVertex
62
3
10
391.247294
20
856.860381
0
VERTEX
5
9ed
100
AcDbEntity
8
1
100
AcDbVertex
100
AcDb2dVertex
62
3
10
391.247294
20
864.828556
0
VERTEX
5
9ee
100
AcDbEntity
8
1
100
AcDbVertex
100
AcDb2dVertex
62
3
10
391.755294
20
861.780556
0
VERTEX
5
9ef
100
AcDbEntity
8
1
100
AcDbVertex
100
AcDb2dVertex
62
3
10
390.739294
20
861.780556
0
VERTEX
5
9f0
100
AcDbEntity
8
1
100
AcDbVertex
100
AcDb2dVertex
62
3
10
391.247294
20
864.828556
0
VERTEX
5
9f1
100
AcDbEntity
8
1
100
AcDbVertex
100
AcDb2dVertex
62
3
10
391.501294
20
861.780556
0
VERTEX
5
9f2
100
AcDbEntity
8
1
100
AcDbVertex
100
AcDb2dVertex
62
3
10
390.993294
20
861.780556
0
VERTEX
5
9f3
100
AcDbEntity
8
1
100
AcDbVertex
100
AcDb2dVertex
62
3
10
391.247294
20
864.828556
0
SEQEND
5
9f4
100
AcDbEntity
8
1
0
LINE
5
9f5
100
AcDbEntity
8
1
100
AcDbLine
6
DOT2
62
3
10
391.247294
20
864.828556
11
391.247294
21
865.828556
0
POLYLINE
5
9f6
100
AcDbEntity
8
1
6
DOT2
62
3
100
AcDb2dPolyline
66
1
10
0.0
20
0.0
30
0.0
70
0
0
VERTEX
5
9f7
100
AcDbEntity
8
1
100
AcDbVertex
100
AcDb2dVertex
62
3
10
391.247294
20
870.876556
0
VERTEX
5
9f8
100
AcDbEntity
8
1
100
AcDbVertex
100
AcDb2dVertex
62
3
10
391.247294
20
865.828556
0
VERTEX
5
9f9
100
AcDbEntity
8
1
100
AcDbVertex
100
AcDb2dVertex
62
3
10
390.739294
20
868.876556
0
VERTEX
5
9fa
100
AcDbEntity
8
1
100
AcDbVertex
100
AcDb2dVertex
62
3
10
391.755294
20
868.876556
0
VERTEX
5
9fb
100
AcDbEntity
8
1
100
AcDbVertex
100
AcDb2dVertex
62
3
10
391.247294
20
865.828556
0
VERTEX
5
9fc
100
AcDbEntity
8
1
100
AcDbVertex
100
AcDb2dVertex
62
3
10
390.993294
20
868.876556
0
VERTEX
5
9fd
100
AcDbEntity
8
1
100
AcDbVertex
100
AcDb2dVertex
62
3
10
391.501294
20
868.876556
0
VERTEX
5
9fe
100
AcDbEntity
8
1
100
AcDbVertex
100
AcDb2dVertex
62
3
10
391.247294
20
865.828556
0
SEQEND
5
9ff
100
AcDbEntity
8
1
0
TEXT
5
a00
100
AcDbEntity
8
1
62
3
100
AcDbText
10
390.546894
20
857.655741
40
3.200000
41
0.825
1
10
50
90.000000
7
STANDARD
72
0
100
AcDbText
0
LINE
5
a01
100
AcDbEntity
8
1
100
AcDbLine
6
DOT2
62
3
10
401.516164
20
864.828556
11
438.633649
21
864.828556
0
LINE
5
a02
100
AcDbEntity
8
1
100
AcDbLine
6
DOT2
62
3
10
419.516181
20
915.628556
11
438.633649
21
915.628556
0
POLYLINE
5
a03
100
AcDbEntity
8
1
6
DOT2
62
3
100
AcDb2dPolyline
66
1
10
0.0
20
0.0
30
0.0
70
0
0
VERTEX
5
a04
100
AcDbEntity
8
1
100
AcDbVertex
100
AcDb2dVertex
62
3
10
437.633649
20
891.595907
0
VERTEX
5
a05
100
AcDbEntity
8
1
100
AcDbVertex
100
AcDb2dVertex
62
3
10
437.633649
20
864.828556
0
VERTEX
5
a06
100
AcDbEntity
8
1
100
AcDbVertex
100
AcDb2dVertex
62
3
10
437.125649
20
867.876556
0
VERTEX
5
a07
100
AcDbEntity
8
1
100
AcDbVertex
100
AcDb2dVertex
62
3
10
438.141649
20
867.876556
0
VERTEX
5
a08
100
AcDbEntity
8
1
100
AcDbVertex
100
AcDb2dVertex
62
3
10
437.633649
20
864.828556
0
VERTEX
5
a09
100
AcDbEntity
8
1
100
AcDbVertex
100
AcDb2dVertex
62
3
10
437.379649
20
867.876556
0
VERTEX
5
a0a
100
AcDbEntity
8
1
100
AcDbVertex
100
AcDb2dVertex
62
3
10
437.887649
20
867.876556
0
VERTEX
5
a0b
100
AcDbEntity
8
1
100
AcDbVertex
100
AcDb2dVertex
62
3
10
437.633649
20
864.828556
0
SEQEND
5
a0c
100
AcDbEntity
8
1
0
POLYLINE
5
a0d
100
AcDbEntity
8
1
6
DOT2
62
3
100
AcDb2dPolyline
66
1
10
0.0
20
0.0
30
0.0
70
0
0
VERTEX
5
a0e
100
AcDbEntity
8
1
100
AcDbVertex
100
AcDb2dVertex
62
3
10
437.633649
20
891.595907
0
VERTEX
5
a0f
100
AcDbEntity
8
1
100
AcDbVertex
100
AcDb2dVertex
62
3
10
437.633649
20
915.628556
0
VERTEX
5
a10
100
AcDbEntity
8
1
100
AcDbVertex
100
AcDb2dVertex
62
3
10
438.141649
20
912.580556
0
VERTEX
5
a11
100
AcDbEntity
8
1
100
AcDbVertex
100
AcDb2dVertex
62
3
10
437.125649
20
912.580556
0
VERTEX
5
a12
100
AcDbEntity
8
1
100
AcDbVertex
100
AcDb2dVertex
62
3
10
437.633649
20
915.628556
0
VERTEX
5
a13
100
AcDbEntity
8
1
100
AcDbVertex
100
AcDb2dVertex
62
3
10
437.887649
20
912.580556
0
VERTEX
5
a14
100
AcDbEntity
8
1
100
AcDbVertex
100
AcDb2dVertex
62
3
10
437.379649
20
912.580556
0
VERTEX
5
a15
100
AcDbEntity
8
1
100
AcDbVertex
100
AcDb2dVertex
62
3
10
437.633649
20
915.628556
0
SEQEND
5
a16
100
AcDbEntity
8
1
0
TEXT
5
a17
100
AcDbEntity
8
1
62
3
100
AcDbText
10
436.933249
20
888.886787
40
3.200000
41
0.825
1
508
50
90.000000
7
STANDARD
72
0
100
AcDbText
0
LINE
5
a18
100
AcDbEntity
8
1
100
AcDbLine
6
DOT2
62
3
10
367.516164
20
864.828556
11
374.597294
21
864.828556
0
LINE
5
a19
100
AcDbEntity
8
1
100
AcDbLine
6
DOT2
62
3
10
364.916164
20
867.528556
11
374.597294
21
867.528556
0
POLYLINE
5
a1a
100
AcDbEntity
8
1
6
DOT2
62
3
100
AcDb2dPolyline
66
1
10
0.0
20
0.0
30
0.0
70
0
0
VERTEX
5
a1b
100
AcDbEntity
8
1
100
AcDbVertex
100
AcDb2dVertex
62
3
10
373.597294
20
852.772187
0
VERTEX
5
a1c
100
AcDbEntity
8
1
100
AcDbVertex
100
AcDb2dVertex
62
3
10
373.597294
20
864.828556
0
VERTEX
5
a1d
100
AcDbEntity
8
1
100
AcDbVertex
100
AcDb2dVertex
62
3
10
374.105294
20
861.780556
0
VERTEX
5
a1e
100
AcDbEntity
8
1
100
AcDbVertex
100
AcDb2dVertex
62
3
10
373.089294
20
861.780556
0
VERTEX
5
a1f
100
AcDbEntity
8
1
100
AcDbVertex
100
AcDb2dVertex
62
3
10
373.597294
20
864.828556
0
VERTEX
5
a20
100
AcDbEntity
8
1
100
AcDbVertex
100
AcDb2dVertex
62
3
10
373.851294
20
861.780556
0
VERTEX
5
a21
100
AcDbEntity
8
1
100
AcDbVertex
100
AcDb2dVertex
62
3
10
373.343294
20
861.780556
0
VERTEX
5
a22
100
AcDbEntity
8
1
100
AcDbVertex
100
AcDb2dVertex
62
3
10
373.597294
20
864.828556
0
SEQEND
5
a23
100
AcDbEntity
8
1
0
LINE
5
a24
100
AcDbEntity
8
1
100
AcDbLine
6
DOT2
62
3
10
373.597294
20
864.828556
11
373.597294
21
867.528556
0
POLYLINE
5
a25
100
AcDbEntity
8
1
6
DOT2
62
3
100
AcDb2dPolyline
66
1
10
0.0
20
0.0
30
0.0
70
0
0
VERTEX
5
a26
100
AcDbEntity
8
1
100
AcDbVertex
100
AcDb2dVertex
62
3
10
373.597294
20
872.576556
0
VERTEX
5
a27
100
AcDbEntity
8
1
100
AcDbVertex
100
AcDb2dVertex
62
3
10
373.597294
20
867.528556
0
VERTEX
5
a28
100
AcDbEntity
8
1
100
AcDbVertex
100
AcDb2dVertex
62
3
10
373.089294
20
870.576556
0
VERTEX
5
a29
100
AcDbEntity
8
1
100
AcDbVertex
100
AcDb2dVertex
62
3
10
374.105294
20
870.576556
0
VERTEX
5
a2a
100
AcDbEntity
8
1
100
AcDbVertex
100
AcDb2dVertex
62
3
10
373.597294
20
867.528556
0
VERTEX
5
a2b
100
AcDbEntity
8
1
100
AcDbVertex
100
AcDb2dVertex
62
3
10
373.343294
20
870.576556
0
VERTEX
5
a2c
100
AcDbEntity
8
1
100
AcDbVertex
100
AcDb2dVertex
62
3
10
373.851294
20
870.576556
0
VERTEX
5
a2d
100
AcDbEntity
8
1
100
AcDbVertex
100
AcDb2dVertex
62
3
10
373.597294
20
867.528556
0
SEQEND
5
a2e
100
AcDbEntity
8
1
0
TEXT
5
a2f
100
AcDbEntity
8
1
62
3
100
AcDbText
10
372.896894
20
853.215547
40
3.200000
41
0.825
1
(27)
50
90.000000
7
STANDARD
72
0
100
AcDbText
0
LINE
5
a30
100
AcDbEntity
8
1
100
AcDbLine
6
DOT2
62
3
10
330.571653
20
881.028556
11
330.571653
21
892.144913
0
LINE
5
a31
100
AcDbEntity
8
1
100
AcDbLine
6
DOT2
62
3
10
348.016164
20
881.028556
11
348.016164
21
892.144913
0
POLYLINE
5
a32
100
AcDbEntity
8
1
6
DOT2
62
3
100
AcDb2dPolyline
66
1
10
0.0
20
0.0
30
0.0
70
0
0
VERTEX
5
a33
100
AcDbEntity
8
1
100
AcDbVertex
100
AcDb2dVertex
62
3
10
339.293908
20
891.144913
0
VERTEX
5
a34
100
AcDbEntity
8
1
100
AcDbVertex
100
AcDb2dVertex
62
3
10
330.571653
20
891.144913
0
VERTEX
5
a35
100
AcDbEntity
8
1
100
AcDbVertex
100
AcDb2dVertex
62
3
10
333.619653
20
891.652913
0
VERTEX
5
a36
100
AcDbEntity
8
1
100
AcDbVertex
100
AcDb2dVertex
62
3
10
333.619653
20
890.636913
0
VERTEX
5
a37
100
AcDbEntity
8
1
100
AcDbVertex
100
AcDb2dVertex
62
3
10
330.571653
20
891.144913
0
VERTEX
5
a38
100
AcDbEntity
8
1
100
AcDbVertex
100
AcDb2dVertex
62
3
10
333.619653
20
891.398913
0
VERTEX
5
a39
100
AcDbEntity
8
1
100
AcDbVertex
100
AcDb2dVertex
62
3
10
333.619653
20
890.890913
0
VERTEX
5
a3a
100
AcDbEntity
8
1
100
AcDbVertex
100
AcDb2dVertex
62
3
10
330.571653
20
891.144913
0
SEQEND
5
a3b
100
AcDbEntity
8
1
0
POLYLINE
5
a3c
100
AcDbEntity
8
1
6
DOT2
62
3
100
AcDb2dPolyline
66
1
10
0.0
20
0.0
30
0.0
70
0
0
VERTEX
5
a3d
100
AcDbEntity
8
1
100
AcDbVertex
100
AcDb2dVertex
62
3
10
339.293908
20
891.144913
0
VERTEX
5
a3e
100
AcDbEntity
8
1
100
AcDbVertex
100
AcDb2dVertex
62
3
10
348.016164
20
891.144913
0
VERTEX
5
a3f
100
AcDbEntity
8
1
100
AcDbVertex
100
AcDb2dVertex
62
3
10
344.968164
20
890.636913
0
VERTEX
5
a40
100
AcDbEntity
8
1
100
AcDbVertex
100
AcDb2dVertex
62
3
10
344.968164
20
891.652913
0
VERTEX
5
a41
100
AcDbEntity
8
1
100
AcDbVertex
100
AcDb2dVertex
62
3
10
348.016164
20
891.144913
0
VERTEX
5
a42
100
AcDbEntity
8
1
100
AcDbVertex
100
AcDb2dVertex
62
3
10
344.968164
20
890.890913
0
VERTEX
5
a43
100
AcDbEntity
8
1
100
AcDbVertex
100
AcDb2dVertex
62
3
10
344.968164
20
891.398913
0
VERTEX
5
a44
100
AcDbEntity
8
1
100
AcDbVertex
100
AcDb2dVertex
62
3
10
348.016164
20
891.144913
0
SEQEND
5
a45
100
AcDbEntity
8
1
0
TEXT
5
a46
100
AcDbEntity
8
1
62
3
100
AcDbText
10
336.584788
20
891.845313
40
3.200000
41
0.825
1
200
7
STANDARD
72
0
100
AcDbText
0
LINE
5
a47
100
AcDbEntity
8
1
100
AcDbLine
6
DOT2
62
3
10
273.350082
20
911.419951
11
273.350082
21
923.541920
0
LINE
5
a48
100
AcDbEntity
8
1
100
AcDbLine
6
DOT2
62
3
10
295.350082
20
911.421449
11
295.350082
21
923.541920
0
POLYLINE
5
a49
100
AcDbEntity
8
1
6
DOT2
62
3
100
AcDb2dPolyline
66
1
10
0.0
20
0.0
30
0.0
70
0
0
VERTEX
5
a4a
100
AcDbEntity
8
1
100
AcDbVertex
100
AcDb2dVertex
62
3
10
284.725748
20
922.541920
0
VERTEX
5
a4b
100
AcDbEntity
8
1
100
AcDbVertex
100
AcDb2dVertex
62
3
10
273.350082
20
922.541920
0
VERTEX
5
a4c
100
AcDbEntity
8
1
100
AcDbVertex
100
AcDb2dVertex
62
3
10
276.398082
20
923.049920
0
VERTEX
5
a4d
100
AcDbEntity
8
1
100
AcDbVertex
100
AcDb2dVertex
62
3
10
276.398082
20
922.033920
0
VERTEX
5
a4e
100
AcDbEntity
8
1
100
AcDbVertex
100
AcDb2dVertex
62
3
10
273.350082
20
922.541920
0
VERTEX
5
a4f
100
AcDbEntity
8
1
100
AcDbVertex
100
AcDb2dVertex
62
3
10
276.398082
20
922.795920
0
VERTEX
5
a50
100
AcDbEntity
8
1
100
AcDbVertex
100
AcDb2dVertex
62
3
10
276.398082
20
922.287920
0
VERTEX
5
a51
100
AcDbEntity
8
1
100
AcDbVertex
100
AcDb2dVertex
62
3
10
273.350082
20
922.541920
0
SEQEND
5
a52
100
AcDbEntity
8
1
0
POLYLINE
5
a53
100
AcDbEntity
8
1
6
DOT2
62
3
100
AcDb2dPolyline
66
1
10
0.0
20
0.0
30
0.0
70
0
0
VERTEX
5
a54
100
AcDbEntity
8
1
100
AcDbVertex
100
AcDb2dVertex
62
3
10
284.725748
20
922.541920
0
VERTEX
5
a55
100
AcDbEntity
8
1
100
AcDbVertex
100
AcDb2dVertex
62
3
10
295.350082
20
922.541920
0
VERTEX
5
a56
100
AcDbEntity
8
1
100
AcDbVertex
100
AcDb2dVertex
62
3
10
292.302082
20
922.033920
0
VERTEX
5
a57
100
AcDbEntity
8
1
100
AcDbVertex
100
AcDb2dVertex
62
3
10
292.302082
20
923.049920
0
VERTEX
5
a58
100
AcDbEntity
8
1
100
AcDbVertex
100
AcDb2dVertex
62
3
10
295.350082
20
922.541920
0
VERTEX
5
a59
100
AcDbEntity
8
1
100
AcDbVertex
100
AcDb2dVertex
62
3
10
292.302082
20
922.287920
0
VERTEX
5
a5a
100
AcDbEntity
8
1
100
AcDbVertex
100
AcDb2dVertex
62
3
10
292.302082
20
922.795920
0
VERTEX
5
a5b
100
AcDbEntity
8
1
100
AcDbVertex
100
AcDb2dVertex
62
3
10
295.350082
20
922.541920
0
SEQEND
5
a5c
100
AcDbEntity
8
1
0
TEXT
5
a5d
100
AcDbEntity
8
1
62
3
100
AcDbText
10
282.016628
20
923.242320
40
3.200000
41
0.825
1
220
7
STANDARD
72
0
100
AcDbText
0
LINE
5
a5e
100
AcDbEntity
8
1
100
AcDbLine
6
DOT2
62
3
10
273.350082
20
864.828556
11
273.350082
21
850.075445
0
LINE
5
a5f
100
AcDbEntity
8
1
100
AcDbLine
6
DOT2
62
3
10
295.350082
20
864.828556
11
295.350082
21
850.075445
0
POLYLINE
5
a60
100
AcDbEntity
8
1
6
DOT2
62
3
100
AcDb2dPolyline
66
1
10
0.0
20
0.0
30
0.0
70
0
0
VERTEX
5
a61
100
AcDbEntity
8
1
100
AcDbVertex
100
AcDb2dVertex
62
3
10
284.350082
20
851.075445
0
VERTEX
5
a62
100
AcDbEntity
8
1
100
AcDbVertex
100
AcDb2dVertex
62
3
10
273.350082
20
851.075445
0
VERTEX
5
a63
100
AcDbEntity
8
1
100
AcDbVertex
100
AcDb2dVertex
62
3
10
276.398082
20
851.583445
0
VERTEX
5
a64
100
AcDbEntity
8
1
100
AcDbVertex
100
AcDb2dVertex
62
3
10
276.398082
20
850.567445
0
VERTEX
5
a65
100
AcDbEntity
8
1
100
AcDbVertex
100
AcDb2dVertex
62
3
10
273.350082
20
851.075445
0
VERTEX
5
a66
100
AcDbEntity
8
1
100
AcDbVertex
100
AcDb2dVertex
62
3
10
276.398082
20
851.329445
0
VERTEX
5
a67
100
AcDbEntity
8
1
100
AcDbVertex
100
AcDb2dVertex
62
3
10
276.398082
20
850.821445
0
VERTEX
5
a68
100
AcDbEntity
8
1
100
AcDbVertex
100
AcDb2dVertex
62
3
10
273.350082
20
851.075445
0
SEQEND
5
a69
100
AcDbEntity
8
1
0
POLYLINE
5
a6a
100
AcDbEntity
8
1
6
DOT2
62
3
100
AcDb2dPolyline
66
1
10
0.0
20
0.0
30
0.0
70
0
0
VERTEX
5
a6b
100
AcDbEntity
8
1
100
AcDbVertex
100
AcDb2dVertex
62
3
10
284.350082
20
851.075445
0
VERTEX
5
a6c
100
AcDbEntity
8
1
100
AcDbVertex
100
AcDb2dVertex
62
3
10
295.350082
20
851.075445
0
VERTEX
5
a6d
100
AcDbEntity
8
1
100
AcDbVertex
100
AcDb2dVertex
62
3
10
292.302082
20
850.567445
0
VERTEX
5
a6e
100
AcDbEntity
8
1
100
AcDbVertex
100
AcDb2dVertex
62
3
10
292.302082
20
851.583445
0
VERTEX
5
a6f
100
AcDbEntity
8
1
100
AcDbVertex
100
AcDb2dVertex
62
3
10
295.350082
20
851.075445
0
VERTEX
5
a70
100
AcDbEntity
8
1
100
AcDbVertex
100
AcDb2dVertex
62
3
10
292.302082
20
850.821445
0
VERTEX
5
a71
100
AcDbEntity
8
1
100
AcDbVertex
100
AcDb2dVertex
62
3
10
292.302082
20
851.329445
0
VERTEX
5
a72
100
AcDbEntity
8
1
100
AcDbVertex
100
AcDb2dVertex
62
3
10
295.350082
20
851.075445
0
SEQEND
5
a73
100
AcDbEntity
8
1
0
TEXT
5
a74
100
AcDbEntity
8
1
62
3
100
AcDbText
10
281.640962
20
851.775845
40
3.200000
41
0.825
1
220
7
STANDARD
72
0
100
AcDbText
0
LINE
5
a75
100
AcDbEntity
8
1
100
AcDbLine
6
DOT2
62
3
10
293.850082
20
864.234573
11
293.850082
21
856.029087
0
LINE
5
a76
100
AcDbEntity
8
1
100
AcDbLine
6
DOT2
62
3
10
274.850082
20
864.234573
11
274.850082
21
856.029087
0
POLYLINE
5
a77
100
AcDbEntity
8
1
6
DOT2
62
3
100
AcDb2dPolyline
66
1
10
0.0
20
0.0
30
0.0
70
0
0
VERTEX
5
a78
100
AcDbEntity
8
1
100
AcDbVertex
100
AcDb2dVertex
62
3
10
284.350082
20
857.029087
0
VERTEX
5
a79
100
AcDbEntity
8
1
100
AcDbVertex
100
AcDb2dVertex
62
3
10
274.850082
20
857.029087
0
VERTEX
5
a7a
100
AcDbEntity
8
1
100
AcDbVertex
100
AcDb2dVertex
62
3
10
277.898082
20
857.537087
0
VERTEX
5
a7b
100
AcDbEntity
8
1
100
AcDbVertex
100
AcDb2dVertex
62
3
10
277.898082
20
856.521087
0
VERTEX
5
a7c
100
AcDbEntity
8
1
100
AcDbVertex
100
AcDb2dVertex
62
3
10
274.850082
20
857.029087
0
VERTEX
5
a7d
100
AcDbEntity
8
1
100
AcDbVertex
100
AcDb2dVertex
62
3
10
277.898082
20
857.283087
0
VERTEX
5
a7e
100
AcDbEntity
8
1
100
AcDbVertex
100
AcDb2dVertex
62
3
10
277.898082
20
856.775087
0
VERTEX
5
a7f
100
AcDbEntity
8
1
100
AcDbVertex
100
AcDb2dVertex
62
3
10
274.850082
20
857.029087
0
SEQEND
5
a80
100
AcDbEntity
8
1
0
POLYLINE
5
a81
100
AcDbEntity
8
1
6
DOT2
62
3
100
AcDb2dPolyline
66
1
10
0.0
20
0.0
30
0.0
70
0
0
VERTEX
5
a82
100
AcDbEntity
8
1
100
AcDbVertex
100
AcDb2dVertex
62
3
10
284.350082
20
857.029087
0
VERTEX
5
a83
100
AcDbEntity
8
1
100
AcDbVertex
100
AcDb2dVertex
62
3
10
293.850082
20
857.029087
0
VERTEX
5
a84
100
AcDbEntity
8
1
100
AcDbVertex
100
AcDb2dVertex
62
3
10
290.802082
20
856.521087
0
VERTEX
5
a85
100
AcDbEntity
8
1
100
AcDbVertex
100
AcDb2dVertex
62
3
10
290.802082
20
857.537087
0
VERTEX
5
a86
100
AcDbEntity
8
1
100
AcDbVertex
100
AcDb2dVertex
62
3
10
293.850082
20
857.029087
0
VERTEX
5
a87
100
AcDbEntity
8
1
100
AcDbVertex
100
AcDb2dVertex
62
3
10
290.802082
20
856.775087
0
VERTEX
5
a88
100
AcDbEntity
8
1
100
AcDbVertex
100
AcDb2dVertex
62
3
10
290.802082
20
857.283087
0
VERTEX
5
a89
100
AcDbEntity
8
1
100
AcDbVertex
100
AcDb2dVertex
62
3
10
293.850082
20
857.029087
0
SEQEND
5
a8a
100
AcDbEntity
8
1
0
TEXT
5
a8b
100
AcDbEntity
8
1
62
3
100
AcDbText
10
281.640962
20
857.729487
40
3.200000
41
0.825
1
190
7
STANDARD
72
0
100
AcDbText
0
LINE
5
a8c
100
AcDbEntity
8
1
100
AcDbLine
6
DOT2
62
3
10
273.350082
20
864.828556
11
264.560346
21
864.828556
0
LINE
5
a8d
100
AcDbEntity
8
1
100
AcDbLine
6
DOT2
62
3
10
271.915518
20
878.028556
11
264.560346
21
878.028556
0
POLYLINE
5
a8e
100
AcDbEntity
8
1
6
DOT2
62
3
100
AcDb2dPolyline
66
1
10
0.0
20
0.0
30
0.0
70
0
0
VERTEX
5
a8f
100
AcDbEntity
8
1
100
AcDbVertex
100
AcDb2dVertex
62
3
10
265.560346
20
871.428556
0
VERTEX
5
a90
100
AcDbEntity
8
1
100
AcDbVertex
100
AcDb2dVertex
62
3
10
265.560346
20
864.828556
0
VERTEX
5
a91
100
AcDbEntity
8
1
100
AcDbVertex
100
AcDb2dVertex
62
3
10
265.052346
20
867.876556
0
VERTEX
5
a92
100
AcDbEntity
8
1
100
AcDbVertex
100
AcDb2dVertex
62
3
10
266.068346
20
867.876556
0
VERTEX
5
a93
100
AcDbEntity
8
1
100
AcDbVertex
100
AcDb2dVertex
62
3
10
265.560346
20
864.828556
0
VERTEX
5
a94
100
AcDbEntity
8
1
100
AcDbVertex
100
AcDb2dVertex
62
3
10
265.306346
20
867.876556
0
VERTEX
5
a95
100
AcDbEntity
8
1
100
AcDbVertex
100
AcDb2dVertex
62
3
10
265.814346
20
867.876556
0
VERTEX
5
a96
100
AcDbEntity
8
1
100
AcDbVertex
100
AcDb2dVertex
62
3
10
265.560346
20
864.828556
0
SEQEND
5
a97
100
AcDbEntity
8
1
0
POLYLINE
5
a98
100
AcDbEntity
8
1
6
DOT2
62
3
100
AcDb2dPolyline
66
1
10
0.0
20
0.0
30
0.0
70
0
0
VERTEX
5
a99
100
AcDbEntity
8
1
100
AcDbVertex
100
AcDb2dVertex
62
3
10
265.560346
20
871.428556
0
VERTEX
5
a9a
100
AcDbEntity
8
1
100
AcDbVertex
100
AcDb2dVertex
62
3
10
265.560346
20
878.028556
0
VERTEX
5
a9b
100
AcDbEntity
8
1
100
AcDbVertex
100
AcDb2dVertex
62
3
10
266.068346
20
874.980556
0
VERTEX
5
a9c
100
AcDbEntity
8
1
100
AcDbVertex
100
AcDb2dVertex
62
3
10
265.052346
20
874.980556
0
VERTEX
5
a9d
100
AcDbEntity
8
1
100
AcDbVertex
100
AcDb2dVertex
62
3
10
265.560346
20
878.028556
0
VERTEX
5
a9e
100
AcDbEntity
8
1
100
AcDbVertex
100
AcDb2dVertex
62
3
10
265.814346
20
874.980556
0
VERTEX
5
a9f
100
AcDbEntity
8
1
100
AcDbVertex
100
AcDb2dVertex
62
3
10
265.306346
20
874.980556
0
VERTEX
5
aa0
100
AcDbEntity
8
1
100
AcDbVertex
100
AcDb2dVertex
62
3
10
265.560346
20
878.028556
0
SEQEND
5
aa1
100
AcDbEntity
8
1
0
TEXT
5
aa2
100
AcDbEntity
8
1
62
3
100
AcDbText
10
264.859946
20
868.719436
40
3.200000
41
0.825
1
132
50
90.000000
7
STANDARD
72
0
100
AcDbText
0
LINE
5
aa3
100
AcDbEntity
8
1
100
AcDbLine
6
DOT2
62
3
10
348.016164
20
881.028556
11
348.016164
21
928.694261
0
LINE
5
aa4
100
AcDbEntity
8
1
100
AcDbLine
6
DOT2
62
3
10
425.516181
20
913.847818
11
425.516181
21
928.694261
0
POLYLINE
5
aa5
100
AcDbEntity
8
1
6
DOT2
62
3
100
AcDb2dPolyline
66
1
10
0.0
20
0.0
30
0.0
70
0
0
VERTEX
5
aa6
100
AcDbEntity
8
1
100
AcDbVertex
100
AcDb2dVertex
62
3
10
386.766172
20
927.694261
0
VERTEX
5
aa7
100
AcDbEntity
8
1
100
AcDbVertex
100
AcDb2dVertex
62
3
10
348.016164
20
927.694261
0
VERTEX
5
aa8
100
AcDbEntity
8
1
100
AcDbVertex
100
AcDb2dVertex
62
3
10
351.064164
20
928.202261
0
VERTEX
5
aa9
100
AcDbEntity
8
1
100
AcDbVertex
100
AcDb2dVertex
62
3
10
351.064164
20
927.186261
0
VERTEX
5
aaa
100
AcDbEntity
8
1
100
AcDbVertex
100
AcDb2dVertex
62
3
10
348.016164
20
927.694261
0
VERTEX
5
aab
100
AcDbEntity
8
1
100
AcDbVertex
100
AcDb2dVertex
62
3
10
351.064164
20
927.948261
0
VERTEX
5
aac
100
AcDbEntity
8
1
100
AcDbVertex
100
AcDb2dVertex
62
3
10
351.064164
20
927.440261
0
VERTEX
5
aad
100
AcDbEntity
8
1
100
AcDbVertex
100
AcDb2dVertex
62
3
10
348.016164
20
927.694261
0
SEQEND
5
aae
100
AcDbEntity
8
1
0
POLYLINE
5
aaf
100
AcDbEntity
8
1
6
DOT2
62
3
100
AcDb2dPolyline
66
1
10
0.0
20
0.0
30
0.0
70
0
0
VERTEX
5
ab0
100
AcDbEntity
8
1
100
AcDbVertex
100
AcDb2dVertex
62
3
10
386.766172
20
927.694261
0
VERTEX
5
ab1
100
AcDbEntity
8
1
100
AcDbVertex
100
AcDb2dVertex
62
3
10
425.516181
20
927.694261
0
VERTEX
5
ab2
100
AcDbEntity
8
1
100
AcDbVertex
100
AcDb2dVertex
62
3
10
422.468181
20
927.186261
0
VERTEX
5
ab3
100
AcDbEntity
8
1
100
AcDbVertex
100
AcDb2dVertex
62
3
10
422.468181
20
928.202261
0
VERTEX
5
ab4
100
AcDbEntity
8
1
100
AcDbVertex
100
AcDb2dVertex
62
3
10
425.516181
20
927.694261
0
VERTEX
5
ab5
100
AcDbEntity
8
1
100
AcDbVertex
100
AcDb2dVertex
62
3
10
422.468181
20
927.440261
0
VERTEX
5
ab6
100
AcDbEntity
8
1
100
AcDbVertex
100
AcDb2dVertex
62
3
10
422.468181
20
927.948261
0
VERTEX
5
ab7
100
AcDbEntity
8
1
100
AcDbVertex
100
AcDb2dVertex
62
3
10
425.516181
20
927.694261
0
SEQEND
5
ab8
100
AcDbEntity
8
1
0
TEXT
5
ab9
100
AcDbEntity
8
1
62
3
100
AcDbText
10
384.057052
20
928.394661
40
3.200000
41
0.825
1
775
7
STANDARD
72
0
100
AcDbText
0
LINE
5
aba
100
AcDbEntity
8
1
100
AcDbLine
6
DOT2
62
3
10
348.016164
20
875.028556
11
348.016164
21
844.683698
0
LINE
5
abb
100
AcDbEntity
8
1
100
AcDbLine
6
DOT2
62
3
10
381.516164
20
864.049138
11
381.516164
21
844.683698
0
POLYLINE
5
abc
100
AcDbEntity
8
1
6
DOT2
62
3
100
AcDb2dPolyline
66
1
10
0.0
20
0.0
30
0.0
70
0
0
VERTEX
5
abd
100
AcDbEntity
8
1
100
AcDbVertex
100
AcDb2dVertex
62
3
10
366.251800
20
845.683698
0
VERTEX
5
abe
100
AcDbEntity
8
1
100
AcDbVertex
100
AcDb2dVertex
62
3
10
348.016164
20
845.683698
0
VERTEX
5
abf
100
AcDbEntity
8
1
100
AcDbVertex
100
AcDb2dVertex
62
3
10
351.064164
20
846.191698
0
VERTEX
5
ac0
100
AcDbEntity
8
1
100
AcDbVertex
100
AcDb2dVertex
62
3
10
351.064164
20
845.175698
0
VERTEX
5
ac1
100
AcDbEntity
8
1
100
AcDbVertex
100
AcDb2dVertex
62
3
10
348.016164
20
845.683698
0
VERTEX
5
ac2
100
AcDbEntity
8
1
100
AcDbVertex
100
AcDb2dVertex
62
3
10
351.064164
20
845.937698
0
VERTEX
5
ac3
100
AcDbEntity
8
1
100
AcDbVertex
100
AcDb2dVertex
62
3
10
351.064164
20
845.429698
0
VERTEX
5
ac4
100
AcDbEntity
8
1
100
AcDbVertex
100
AcDb2dVertex
62
3
10
348.016164
20
845.683698
0
SEQEND
5
ac5
100
AcDbEntity
8
1
0
POLYLINE
5
ac6
100
AcDbEntity
8
1
6
DOT2
62
3
100
AcDb2dPolyline
66
1
10
0.0
20
0.0
30
0.0
70
0
0
VERTEX
5
ac7
100
AcDbEntity
8
1
100
AcDbVertex
100
AcDb2dVertex
62
3
10
366.251800
20
845.683698
0
VERTEX
5
ac8
100
AcDbEntity
8
1
100
AcDbVertex
100
AcDb2dVertex
62
3
10
381.516164
20
845.683698
0
VERTEX
5
ac9
100
AcDbEntity
8
1
100
AcDbVertex
100
AcDb2dVertex
62
3
10
378.468164
20
845.175698
0
VERTEX
5
aca
100
AcDbEntity
8
1
100
AcDbVertex
100
AcDb2dVertex
62
3
10
378.468164
20
846.191698
0
VERTEX
5
acb
100
AcDbEntity
8
1
100
AcDbVertex
100
AcDb2dVertex
62
3
10
381.516164
20
845.683698
0
VERTEX
5
acc
100
AcDbEntity
8
1
100
AcDbVertex
100
AcDb2dVertex
62
3
10
378.468164
20
845.429698
0
VERTEX
5
acd
100
AcDbEntity
8
1
100
AcDbVertex
100
AcDb2dVertex
62
3
10
378.468164
20
845.937698
0
VERTEX
5
ace
100
AcDbEntity
8
1
100
AcDbVertex
100
AcDb2dVertex
62
3
10
381.516164
20
845.683698
0
SEQEND
5
acf
100
AcDbEntity
8
1
0
TEXT
5
ad0
100
AcDbEntity
8
1
62
3
100
AcDbText
10
363.542680
20
846.384098
40
3.200000
41
0.825
1
335
7
STANDARD
72
0
100
AcDbText
0
LINE
5
ad1
100
AcDbEntity
8
1
100
AcDbLine
6
DOT2
62
3
10
348.016164
20
875.028556
11
348.016164
21
838.641226
0
LINE
5
ad2
100
AcDbEntity
8
1
100
AcDbLine
6
DOT2
62
3
10
363.016164
20
863.933569
11
363.016164
21
838.641226
0
POLYLINE
5
ad3
100
AcDbEntity
8
1
6
DOT2
62
3
100
AcDb2dPolyline
66
1
10
0.0
20
0.0
30
0.0
70
0
0
VERTEX
5
ad4
100
AcDbEntity
8
1
100
AcDbVertex
100
AcDb2dVertex
62
3
10
342.968164
20
839.641226
0
VERTEX
5
ad5
100
AcDbEntity
8
1
100
AcDbVertex
100
AcDb2dVertex
62
3
10
348.016164
20
839.641226
0
VERTEX
5
ad6
100
AcDbEntity
8
1
100
AcDbVertex
100
AcDb2dVertex
62
3
10
344.968164
20
839.133226
0
VERTEX
5
ad7
100
AcDbEntity
8
1
100
AcDbVertex
100
AcDb2dVertex
62
3
10
344.968164
20
840.149226
0
VERTEX
5
ad8
100
AcDbEntity
8
1
100
AcDbVertex
100
AcDb2dVertex
62
3
10
348.016164
20
839.641226
0
VERTEX
5
ad9
100
AcDbEntity
8
1
100
AcDbVertex
100
AcDb2dVertex
62
3
10
344.968164
20
839.387226
0
VERTEX
5
ada
100
AcDbEntity
8
1
100
AcDbVertex
100
AcDb2dVertex
62
3
10
344.968164
20
839.895226
0
VERTEX
5
adb
100
AcDbEntity
8
1
100
AcDbVertex
100
AcDb2dVertex
62
3
10
348.016164
20
839.641226
0
SEQEND
5
adc
100
AcDbEntity
8
1
0
LINE
5
add
100
AcDbEntity
8
1
100
AcDbLine
6
DOT2
62
3
10
348.016164
20
839.641226
11
363.016164
21
839.641226
0
POLYLINE
5
ade
100
AcDbEntity
8
1
6
DOT2
62
3
100
AcDb2dPolyline
66
1
10
0.0
20
0.0
30
0.0
70
0
0
VERTEX
5
adf
100
AcDbEntity
8
1
100
AcDbVertex
100
AcDb2dVertex
62
3
10
368.064164
20
839.641226
0
VERTEX
5
ae0
100
AcDbEntity
8
1
100
AcDbVertex
100
AcDb2dVertex
62
3
10
363.016164
20
839.641226
0
VERTEX
5
ae1
100
AcDbEntity
8
1
100
AcDbVertex
100
AcDb2dVertex
62
3
10
366.064164
20
840.149226
0
VERTEX
5
ae2
100
AcDbEntity
8
1
100
AcDbVertex
100
AcDb2dVertex
62
3
10
366.064164
20
839.133226
0
VERTEX
5
ae3
100
AcDbEntity
8
1
100
AcDbVertex
100
AcDb2dVertex
62
3
10
363.016164
20
839.641226
0
VERTEX
5
ae4
100
AcDbEntity
8
1
100
AcDbVertex
100
AcDb2dVertex
62
3
10
366.064164
20
839.895226
0
VERTEX
5
ae5
100
AcDbEntity
8
1
100
AcDbVertex
100
AcDb2dVertex
62
3
10
366.064164
20
839.387226
0
VERTEX
5
ae6
100
AcDbEntity
8
1
100
AcDbVertex
100
AcDb2dVertex
62
3
10
363.016164
20
839.641226
0
SEQEND
5
ae7
100
AcDbEntity
8
1
0
TEXT
5
ae8
100
AcDbEntity
8
1
62
3
100
AcDbText
10
351.138904
20
840.341626
40
3.200000
41
0.825
1
150
7
STANDARD
72
0
100
AcDbText
0
LINE
5
ae9
100
AcDbEntity
8
1
100
AcDbLine
6
DOT2
62
3
10
357.016164
20
868.928556
11
357.016164
21
849.661743
0
LINE
5
aea
100
AcDbEntity
8
1
100
AcDbLine
6
DOT2
62
3
10
348.016164
20
875.028556
11
348.016164
21
849.661743
0
POLYLINE
5
aeb
100
AcDbEntity
8
1
6
DOT2
62
3
100
AcDb2dPolyline
66
1
10
0.0
20
0.0
30
0.0
70
0
0
VERTEX
5
aec
100
AcDbEntity
8
1
100
AcDbVertex
100
AcDb2dVertex
62
3
10
342.968164
20
850.661743
0
VERTEX
5
aed
100
AcDbEntity
8
1
100
AcDbVertex
100
AcDb2dVertex
62
3
10
348.016164
20
850.661743
0
VERTEX
5
aee
100
AcDbEntity
8
1
100
AcDbVertex
100
AcDb2dVertex
62
3
10
344.968164
20
850.153743
0
VERTEX
5
aef
100
AcDbEntity
8
1
100
AcDbVertex
100
AcDb2dVertex
62
3
10
344.968164
20
851.169743
0
VERTEX
5
af0
100
AcDbEntity
8
1
100
AcDbVertex
100
AcDb2dVertex
62
3
10
348.016164
20
850.661743
0
VERTEX
5
af1
100
AcDbEntity
8
1
100
AcDbVertex
100
AcDb2dVertex
62
3
10
344.968164
20
850.407743
0
VERTEX
5
af2
100
AcDbEntity
8
1
100
AcDbVertex
100
AcDb2dVertex
62
3
10
344.968164
20
850.915743
0
VERTEX
5
af3
100
AcDbEntity
8
1
100
AcDbVertex
100
AcDb2dVertex
62
3
10
348.016164
20
850.661743
0
SEQEND
5
af4
100
AcDbEntity
8
1
0
LINE
5
af5
100
AcDbEntity
8
1
100
AcDbLine
6
DOT2
62
3
10
348.016164
20
850.661743
11
357.016164
21
850.661743
0
POLYLINE
5
af6
100
AcDbEntity
8
1
6
DOT2
62
3
100
AcDb2dPolyline
66
1
10
0.0
20
0.0
30
0.0
70
0
0
VERTEX
5
af7
100
AcDbEntity
8
1
100
AcDbVertex
100
AcDb2dVertex
62
3
10
362.064164
20
850.661743
0
VERTEX
5
af8
100
AcDbEntity
8
1
100
AcDbVertex
100
AcDb2dVertex
62
3
10
357.016164
20
850.661743
0
VERTEX
5
af9
100
AcDbEntity
8
1
100
AcDbVertex
100
AcDb2dVertex
62
3
10
360.064164
20
851.169743
0
VERTEX
5
afa
100
AcDbEntity
8
1
100
AcDbVertex
100
AcDb2dVertex
62
3
10
360.064164
20
850.153743
0
VERTEX
5
afb
100
AcDbEntity
8
1
100
AcDbVertex
100
AcDb2dVertex
62
3
10
357.016164
20
850.661743
0
VERTEX
5
afc
100
AcDbEntity
8
1
100
AcDbVertex
100
AcDb2dVertex
62
3
10
360.064164
20
850.915743
0
VERTEX
5
afd
100
AcDbEntity
8
1
100
AcDbVertex
100
AcDb2dVertex
62
3
10
360.064164
20
850.407743
0
VERTEX
5
afe
100
AcDbEntity
8
1
100
AcDbVertex
100
AcDb2dVertex
62
3
10
357.016164
20
850.661743
0
SEQEND
5
aff
100
AcDbEntity
8
1
0
TEXT
5
b00
100
AcDbEntity
8
1
62
3
100
AcDbText
10
350.895044
20
851.362143
40
3.200000
41
0.825
1
90
7
STANDARD
72
0
100
AcDbText
0
TEXT
5
b01
100
AcDbEntity
8
1
62
3
100
AcDbText
10
347.503701
20
798.254174
40
3.200000
41
0.825
1
R9
7
STANDARD
72
0
100
AcDbText
0
POLYLINE
5
b02
100
AcDbEntity
8
1
6
DOT2
62
3
100
AcDb2dPolyline
66
1
10
0.0
20
0.0
30
0.0
70
0
0
VERTEX
5
b03
100
AcDbEntity
8
1
100
AcDbVertex
100
AcDb2dVertex
62
3
10
344.687701
20
797.553774
0
VERTEX
5
b04
100
AcDbEntity
8
1
100
AcDbVertex
100
AcDb2dVertex
62
3
10
353.187701
20
797.553774
0
VERTEX
5
b05
100
AcDbEntity
8
1
100
AcDbVertex
100
AcDb2dVertex
62
3
10
362.236741
20
802.778240
0
VERTEX
5
b06
100
AcDbEntity
8
1
100
AcDbVertex
100
AcDb2dVertex
62
3
10
359.851096
20
800.814299
0
VERTEX
5
b07
100
AcDbEntity
8
1
100
AcDbVertex
100
AcDb2dVertex
62
3
10
359.343096
20
801.694181
0
VERTEX
5
b08
100
AcDbEntity
8
1
100
AcDbVertex
100
AcDb2dVertex
62
3
10
362.236741
20
802.778240
0
VERTEX
5
b09
100
AcDbEntity
8
1
100
AcDbVertex
100
AcDb2dVertex
62
3
10
359.724096
20
801.034269
0
VERTEX
5
b0a
100
AcDbEntity
8
1
100
AcDbVertex
100
AcDb2dVertex
62
3
10
359.470096
20
801.474210
0
VERTEX
5
b0b
100
AcDbEntity
8
1
100
AcDbVertex
100
AcDb2dVertex
62
3
10
362.236741
20
802.778240
0
SEQEND
5
b0c
100
AcDbEntity
8
1
0
LINE
5
b0d
100
AcDbEntity
8
1
100
AcDbLine
6
DOT2
62
3
10
350.616164
20
884.278556
11
339.239777
21
884.278556
0
LINE
5
b0e
100
AcDbEntity
8
1
100
AcDbLine
6
DOT2
62
3
10
350.616164
20
871.778556
11
339.239777
21
871.778556
0
POLYLINE
5
b0f
100
AcDbEntity
8
1
6
DOT2
62
3
100
AcDb2dPolyline
66
1
10
0.0
20
0.0
30
0.0
70
0
0
VERTEX
5
b10
100
AcDbEntity
8
1
100
AcDbVertex
100
AcDb2dVertex
62
3
10
340.239777
20
866.730556
0
VERTEX
5
b11
100
AcDbEntity
8
1
100
AcDbVertex
100
AcDb2dVertex
62
3
10
340.239777
20
871.778556
0
VERTEX
5
b12
100
AcDbEntity
8
1
100
AcDbVertex
100
AcDb2dVertex
62
3
10
340.747777
20
868.730556
0
VERTEX
5
b13
100
AcDbEntity
8
1
100
AcDbVertex
100
AcDb2dVertex
62
3
10
339.731777
20
868.730556
0
VERTEX
5
b14
100
AcDbEntity
8
1
100
AcDbVertex
100
AcDb2dVertex
62
3
10
340.239777
20
871.778556
0
VERTEX
5
b15
100
AcDbEntity
8
1
100
AcDbVertex
100
AcDb2dVertex
62
3
10
340.493777
20
868.730556
0
VERTEX
5
b16
100
AcDbEntity
8
1
100
AcDbVertex
100
AcDb2dVertex
62
3
10
339.985777
20
868.730556
0
VERTEX
5
b17
100
AcDbEntity
8
1
100
AcDbVertex
100
AcDb2dVertex
62
3
10
340.239777
20
871.778556
0
SEQEND
5
b18
100
AcDbEntity
8
1
0
LINE
5
b19
100
AcDbEntity
8
1
100
AcDbLine
6
DOT2
62
3
10
340.239777
20
871.778556
11
340.239777
21
884.278556
0
POLYLINE
5
b1a
100
AcDbEntity
8
1
6
DOT2
62
3
100
AcDb2dPolyline
66
1
10
0.0
20
0.0
30
0.0
70
0
0
VERTEX
5
b1b
100
AcDbEntity
8
1
100
AcDbVertex
100
AcDb2dVertex
62
3
10
340.239777
20
889.326556
0
VERTEX
5
b1c
100
AcDbEntity
8
1
100
AcDbVertex
100
AcDb2dVertex
62
3
10
340.239777
20
884.278556
0
VERTEX
5
b1d
100
AcDbEntity
8
1
100
AcDbVertex
100
AcDb2dVertex
62
3
10
339.731777
20
887.326556
0
VERTEX
5
b1e
100
AcDbEntity
8
1
100
AcDbVertex
100
AcDb2dVertex
62
3
10
340.747777
20
887.326556
0
VERTEX
5
b1f
100
AcDbEntity
8
1
100
AcDbVertex
100
AcDb2dVertex
62
3
10
340.239777
20
884.278556
0
VERTEX
5
b20
100
AcDbEntity
8
1
100
AcDbVertex
100
AcDb2dVertex
62
3
10
339.985777
20
887.326556
0
VERTEX
5
b21
100
AcDbEntity
8
1
100
AcDbVertex
100
AcDb2dVertex
62
3
10
340.493777
20
887.326556
0
VERTEX
5
b22
100
AcDbEntity
8
1
100
AcDbVertex
100
AcDb2dVertex
62
3
10
340.239777
20
884.278556
0
SEQEND
5
b23
100
AcDbEntity
8
1
0
TEXT
5
b24
100
AcDbEntity
8
1
62
3
100
AcDbText
10
339.539377
20
874.231436
40
3.200000
41
0.825
1
%%c125
50
90.000000
7
STANDARD
72
0
100
AcDbText
0
LINE
5
b25
100
AcDbEntity
8
1
100
AcDbLine
6
DOT2
62
3
10
349.753986
20
883.028556
11
343.526027
21
883.028556
0
LINE
5
b26
100
AcDbEntity
8
1
100
AcDbLine
6
DOT2
62
3
10
349.753986
20
873.028556
11
343.526027
21
873.028556
0
POLYLINE
5
b27
100
AcDbEntity
8
1
6
DOT2
62
3
100
AcDb2dPolyline
66
1
10
0.0
20
0.0
30
0.0
70
0
0
VERTEX
5
b28
100
AcDbEntity
8
1
100
AcDbVertex
100
AcDb2dVertex
62
3
10
344.526027
20
867.980556
0
VERTEX
5
b29
100
AcDbEntity
8
1
100
AcDbVertex
100
AcDb2dVertex
62
3
10
344.526027
20
873.028556
0
VERTEX
5
b2a
100
AcDbEntity
8
1
100
AcDbVertex
100
AcDb2dVertex
62
3
10
345.034027
20
869.980556
0
VERTEX
5
b2b
100
AcDbEntity
8
1
100
AcDbVertex
100
AcDb2dVertex
62
3
10
344.018027
20
869.980556
0
VERTEX
5
b2c
100
AcDbEntity
8
1
100
AcDbVertex
100
AcDb2dVertex
62
3
10
344.526027
20
873.028556
0
VERTEX
5
b2d
100
AcDbEntity
8
1
100
AcDbVertex
100
AcDb2dVertex
62
3
10
344.780027
20
869.980556
0
VERTEX
5
b2e
100
AcDbEntity
8
1
100
AcDbVertex
100
AcDb2dVertex
62
3
10
344.272027
20
869.980556
0
VERTEX
5
b2f
100
AcDbEntity
8
1
100
AcDbVertex
100
AcDb2dVertex
62
3
10
344.526027
20
873.028556
0
SEQEND
5
b30
100
AcDbEntity
8
1
0
LINE
5
b31
100
AcDbEntity
8
1
100
AcDbLine
6
DOT2
62
3
10
344.526027
20
873.028556
11
344.526027
21
883.028556
0
POLYLINE
5
b32
100
AcDbEntity
8
1
6
DOT2
62
3
100
AcDb2dPolyline
66
1
10
0.0
20
0.0
30
0.0
70
0
0
VERTEX
5
b33
100
AcDbEntity
8
1
100
AcDbVertex
100
AcDb2dVertex
62
3
10
344.526027
20
888.076556
0
VERTEX
5
b34
100
AcDbEntity
8
1
100
AcDbVertex
100
AcDb2dVertex
62
3
10
344.526027
20
883.028556
0
VERTEX
5
b35
100
AcDbEntity
8
1
100
AcDbVertex
100
AcDb2dVertex
62
3
10
344.018027
20
886.076556
0
VERTEX
5
b36
100
AcDbEntity
8
1
100
AcDbVertex
100
AcDb2dVertex
62
3
10
345.034027
20
886.076556
0
VERTEX
5
b37
100
AcDbEntity
8
1
100
AcDbVertex
100
AcDb2dVertex
62
3
10
344.526027
20
883.028556
0
VERTEX
5
b38
100
AcDbEntity
8
1
100
AcDbVertex
100
AcDb2dVertex
62
3
10
344.272027
20
886.076556
0
VERTEX
5
b39
100
AcDbEntity
8
1
100
AcDbVertex
100
AcDb2dVertex
62
3
10
344.780027
20
886.076556
0
VERTEX
5
b3a
100
AcDbEntity
8
1
100
AcDbVertex
100
AcDb2dVertex
62
3
10
344.526027
20
883.028556
0
SEQEND
5
b3b
100
AcDbEntity
8
1
0
TEXT
5
b3c
100
AcDbEntity
8
1
62
3
100
AcDbText
10
343.825627
20
874.231436
40
3.200000
41
0.825
1
%%c100
50
90.000000
7
STANDARD
72
0
100
AcDbText
0
LINE
5
b3d
100
AcDbEntity
8
1
100
AcDbLine
6
DOT2
62
3
10
348.016164
20
875.028556
11
348.016164
21
832.787320
0
LINE
5
b3e
100
AcDbEntity
8
1
100
AcDbLine
6
DOT2
62
3
10
358.016164
20
864.828556
11
358.016164
21
832.787320
0
POLYLINE
5
b3f
100
AcDbEntity
8
1
6
DOT2
62
3
100
AcDb2dPolyline
66
1
10
0.0
20
0.0
30
0.0
70
0
0
VERTEX
5
b40
100
AcDbEntity
8
1
100
AcDbVertex
100
AcDb2dVertex
62
3
10
342.968164
20
833.787320
0
VERTEX
5
b41
100
AcDbEntity
8
1
100
AcDbVertex
100
AcDb2dVertex
62
3
10
348.016164
20
833.787320
0
VERTEX
5
b42
100
AcDbEntity
8
1
100
AcDbVertex
100
AcDb2dVertex
62
3
10
344.968164
20
833.279320
0
VERTEX
5
b43
100
AcDbEntity
8
1
100
AcDbVertex
100
AcDb2dVertex
62
3
10
344.968164
20
834.295320
0
VERTEX
5
b44
100
AcDbEntity
8
1
100
AcDbVertex
100
AcDb2dVertex
62
3
10
348.016164
20
833.787320
0
VERTEX
5
b45
100
AcDbEntity
8
1
100
AcDbVertex
100
AcDb2dVertex
62
3
10
344.968164
20
833.533320
0
VERTEX
5
b46
100
AcDbEntity
8
1
100
AcDbVertex
100
AcDb2dVertex
62
3
10
344.968164
20
834.041320
0
VERTEX
5
b47
100
AcDbEntity
8
1
100
AcDbVertex
100
AcDb2dVertex
62
3
10
348.016164
20
833.787320
0
SEQEND
5
b48
100
AcDbEntity
8
1
0
LINE
5
b49
100
AcDbEntity
8
1
100
AcDbLine
6
DOT2
62
3
10
348.016164
20
833.787320
11
358.016164
21
833.787320
0
POLYLINE
5
b4a
100
AcDbEntity
8
1
6
DOT2
62
3
100
AcDb2dPolyline
66
1
10
0.0
20
0.0
30
0.0
70
0
0
VERTEX
5
b4b
100
AcDbEntity
8
1
100
AcDbVertex
100
AcDb2dVertex
62
3
10
363.064164
20
833.787320
0
VERTEX
5
b4c
100
AcDbEntity
8
1
100
AcDbVertex
100
AcDb2dVertex
62
3
10
358.016164
20
833.787320
0
VERTEX
5
b4d
100
AcDbEntity
8
1
100
AcDbVertex
100
AcDb2dVertex
62
3
10
361.064164
20
834.295320
0
VERTEX
5
b4e
100
AcDbEntity
8
1
100
AcDbVertex
100
AcDb2dVertex
62
3
10
361.064164
20
833.279320
0
VERTEX
5
b4f
100
AcDbEntity
8
1
100
AcDbVertex
100
AcDb2dVertex
62
3
10
358.016164
20
833.787320
0
VERTEX
5
b50
100
AcDbEntity
8
1
100
AcDbVertex
100
AcDb2dVertex
62
3
10
361.064164
20
834.041320
0
VERTEX
5
b51
100
AcDbEntity
8
1
100
AcDbVertex
100
AcDb2dVertex
62
3
10
361.064164
20
833.533320
0
VERTEX
5
b52
100
AcDbEntity
8
1
100
AcDbVertex
100
AcDb2dVertex
62
3
10
358.016164
20
833.787320
0
SEQEND
5
b53
100
AcDbEntity
8
1
0
LINE
5
b54
100
AcDbEntity
8
1
100
AcDbLine
6
DOT2
62
3
10
401.516164
20
864.828556
11
401.516164
21
832.787320
0
POLYLINE
5
b55
100
AcDbEntity
8
1
6
DOT2
62
3
100
AcDb2dPolyline
66
1
10
0.0
20
0.0
30
0.0
70
0
0
VERTEX
5
b56
100
AcDbEntity
8
1
100
AcDbVertex
100
AcDb2dVertex
62
3
10
379.766164
20
833.787320
0
VERTEX
5
b57
100
AcDbEntity
8
1
100
AcDbVertex
100
AcDb2dVertex
62
3
10
358.016164
20
833.787320
0
VERTEX
5
b58
100
AcDbEntity
8
1
100
AcDbVertex
100
AcDb2dVertex
62
3
10
361.064164
20
834.295320
0
VERTEX
5
b59
100
AcDbEntity
8
1
100
AcDbVertex
100
AcDb2dVertex
62
3
10
361.064164
20
833.279320
0
VERTEX
5
b5a
100
AcDbEntity
8
1
100
AcDbVertex
100
AcDb2dVertex
62
3
10
358.016164
20
833.787320
0
VERTEX
5
b5b
100
AcDbEntity
8
1
100
AcDbVertex
100
AcDb2dVertex
62
3
10
361.064164
20
834.041320
0
VERTEX
5
b5c
100
AcDbEntity
8
1
100
AcDbVertex
100
AcDb2dVertex
62
3
10
361.064164
20
833.533320
0
VERTEX
5
b5d
100
AcDbEntity
8
1
100
AcDbVertex
100
AcDb2dVertex
62
3
10
358.016164
20
833.787320
0
SEQEND
5
b5e
100
AcDbEntity
8
1
0
POLYLINE
5
b5f
100
AcDbEntity
8
1
6
DOT2
62
3
100
AcDb2dPolyline
66
1
10
0.0
20
0.0
30
0.0
70
0
0
VERTEX
5
b60
100
AcDbEntity
8
1
100
AcDbVertex
100
AcDb2dVertex
62
3
10
379.766164
20
833.787320
0
VERTEX
5
b61
100
AcDbEntity
8
1
100
AcDbVertex
100
AcDb2dVertex
62
3
10
401.516164
20
833.787320
0
VERTEX
5
b62
100
AcDbEntity
8
1
100
AcDbVertex
100
AcDb2dVertex
62
3
10
398.468164
20
833.279320
0
VERTEX
5
b63
100
AcDbEntity
8
1
100
AcDbVertex
100
AcDb2dVertex
62
3
10
398.468164
20
834.295320
0
VERTEX
5
b64
100
AcDbEntity
8
1
100
AcDbVertex
100
AcDb2dVertex
62
3
10
401.516164
20
833.787320
0
VERTEX
5
b65
100
AcDbEntity
8
1
100
AcDbVertex
100
AcDb2dVertex
62
3
10
398.468164
20
833.533320
0
VERTEX
5
b66
100
AcDbEntity
8
1
100
AcDbVertex
100
AcDb2dVertex
62
3
10
398.468164
20
834.041320
0
VERTEX
5
b67
100
AcDbEntity
8
1
100
AcDbVertex
100
AcDb2dVertex
62
3
10
401.516164
20
833.787320
0
SEQEND
5
b68
100
AcDbEntity
8
1
0
TEXT
5
b69
100
AcDbEntity
8
1
62
3
100
AcDbText
10
377.057044
20
834.487720
40
3.200000
41
0.825
1
435
7
STANDARD
72
0
100
AcDbText
0
TEXT
5
b6a
100
AcDbEntity
8
1
62
3
100
AcDbText
10
350.307044
20
834.487720
40
3.200000
41
0.825
1
100
7
STANDARD
72
0
100
AcDbText
0
ENDSEC
0
SECTION
2
OBJECTS
0
DICTIONARY
5
b6b
100
AcDbDictionary
3
ACAD_GROUP
350
b6c
3
ACAD_MLINESTYLE
350
b6d
0
DICTIONARY
5
b6c
102
{ACAD_REACTORS
330
b6b
102
}
100
AcDbDictionary
0
DICTIONARY
5
b6d
102
{ACAD_REACTORS
330
b6b
102
}
100
AcDbDictionary
3
STANDARD
350
b6e
0
MLINESTYLE
5
b6e
102
{ACAD_REACTORS
330
b6d
102
}
100
AcDbMlineStyle
2
STANDARD
70
0
3

62
0
51
90.0
52
90.0
71
2
49
0.5
62
256
6
BYLAYER
49
-0.5
62
256
6
BYLAYER
0
ENDSEC
0
EOF
